Tv Total Theme

von The Nameless, 19.04.06.

  1. The Nameless

    The Nameless Registrierter Benutzer

    Im Board seit:
    30.03.06
    Zuletzt hier:
    28.12.09
    Beiträge:
    109
    Ort:
    Bellingen
    Zustimmungen:
    0
    Kekse:
    65
    Erstellt: 19.04.06   #1
    Ahoi
    Ich hab mir gestern mal Tv Total angeschaut und ich finde das Tv Total Thema ganz lustig und wollte jetzt mal fragen ob jemand die tabs dazu hat:rolleyes:

    Mfg Manuel
     
  2. Stifflers_mom

    Stifflers_mom Registrierter Benutzer

    Im Board seit:
    19.08.03
    Zuletzt hier:
    30.10.16
    Beiträge:
    1.576
    Ort:
    Erlangen
    Zustimmungen:
    10
    Kekse:
    1.032
    Erstellt: 19.04.06   #2
    genau das hat mich vor ein paar tagen auch interessiert. ich hab dann kurz versucht, die themamelodie so ausm stegreif, ohne referenz rauszubekommen.


    Code:
    -------------------------------5\----|------------5-----------------------------------------
    -------------------------------------|---------------8--5------8-8-8-8----8-8-8-8----8--10\-
    --------5--7--8--7--5----5-----------|------5--7-----------5--------------------------------
    --7-------------------7--------------|-7----------------------------------------------------
    -------------------------------------|------------------------------------------------------
    -------------------------------------|------------------------------------------------------

    also vielleicht hab ichs auch etwas falsch im ohr gehabt, is wie gesagt aus dem kopf heraus. wahrscheinlich auch in ner komplett anderen tonart, ich schätz mal irgendne Bb-Tonart wegen den Bläsern.
    Wenn jemand das thema als mp3 file hätte, könnt ichs auch dann komlett und richtig raushören;)
     
  3. Stifflers_mom

    Stifflers_mom Registrierter Benutzer

    Im Board seit:
    19.08.03
    Zuletzt hier:
    30.10.16
    Beiträge:
    1.576
    Ort:
    Erlangen
    Zustimmungen:
    10
    Kekse:
    1.032
    Erstellt: 21.04.06   #3
    verdammt, sorry, die obige tab stimmt nicht!:o

    hab gestern tv total gesehen, und da is mir aufgefallen, dass die melodie ja komplett anders ist. kanns sein, dass die mal ne andere hatten? oder weiß jemand, welches hirngespinst mir die melodie vorgegaukelt hat?:D

    das müsste jetzt die richtige sein:
    Code:
    ---------------------------------------------------------||--------------
    --------------------------------------------------------o||-8---9---10---
    ---------------------------------------------------------||-8---9---10---
    ------3--4--5--6--------3---4--5--6--7-------8----7--5---||-7---8---9----
    --5-----------------------------------------------------o||-8---9---10---
    ---------------------------------------------------------||--------------
     
  4. GuitarRa

    GuitarRa Registrierter Benutzer

    Im Board seit:
    03.07.05
    Zuletzt hier:
    12.01.08
    Beiträge:
    617
    Ort:
    Nienburg
    Zustimmungen:
    0
    Kekse:
    32
    Erstellt: 21.04.06   #4
    :rolleyes: ne ne mp3 hab ich jetz net aber auf tv-total.de gibts ja immer videos aus der letzten sendung und so .. vielleicht is da ja was dabei ;)
     
  5. CMatuschek

    CMatuschek Registrierter Benutzer

    Im Board seit:
    01.05.05
    Zuletzt hier:
    28.11.09
    Beiträge:
    876
    Ort:
    Wesel
    Zustimmungen:
    0
    Kekse:
    228
    Erstellt: 01.04.07   #5
  6. Stifflers_mom

    Stifflers_mom Registrierter Benutzer

    Im Board seit:
    19.08.03
    Zuletzt hier:
    30.10.16
    Beiträge:
    1.576
    Ort:
    Erlangen
    Zustimmungen:
    10
    Kekse:
    1.032
    Erstellt: 01.04.07   #6
    ja ok. aber das thema is ja wirklich einfach rauszuhören. zumindest wenns nur um die gitarre geht.
    oder besteht da auch noch bedarf?;)
     
Die Seite wird geladen...

mapping