Übungen Hammerons und Pulloffs

von e4gLe, 05.11.04.

  1. e4gLe

    e4gLe Registrierter Benutzer

    Im Board seit:
    02.10.03
    Zuletzt hier:
    1.04.09
    Beiträge:
    206
    Zustimmungen:
    0
    Kekse:
    10
    Erstellt: 05.11.04   #1
    mich würde mal interessieren, wie ich hammerons und pulloffs üben kann??
     
  2. Lenny

    Lenny Registrierter Benutzer

    Im Board seit:
    19.08.03
    Zuletzt hier:
    18.03.14
    Beiträge:
    1.115
    Zustimmungen:
    9
    Kekse:
    49
    Erstellt: 05.11.04   #2
    Hm such dir doch einfach ein Lied wo es angewendet wird, und übe das, erst langsam, dann nach und nach schneller.
    Ich hab das z.B. mit Thunderstruck von AC/DC gemacht, das Intro kann man super mit HO und PU spielen.
    Wie lange spielst du denn schon grundsätzlich ?
    Was für Techniken kannst du schon spielen ?
     
  3. e4gLe

    e4gLe Threadersteller Registrierter Benutzer

    Im Board seit:
    02.10.03
    Zuletzt hier:
    1.04.09
    Beiträge:
    206
    Zustimmungen:
    0
    Kekse:
    10
    Erstellt: 05.11.04   #3
    spiele ca nen jahr
     
  4. Hans_3

    Hans_3 High Competence Award HCA

    Im Board seit:
    09.11.03
    Beiträge:
    16.142
    Zustimmungen:
    1.119
    Kekse:
    49.592
    Erstellt: 06.11.04   #4
    12h14p12 slide 11h12p11

    und genauso weiter 9 11 9 / 7 9 7 / 5 7 5 / 4 5 4 / 2 4 2 0 ;)
     
  5. KlausP

    KlausP HCA Gitarre HCA

    Im Board seit:
    25.01.04
    Zuletzt hier:
    14.07.11
    Beiträge:
    6.293
    Ort:
    Franken
    Zustimmungen:
    10
    Kekse:
    13.246
    Erstellt: 06.11.04   #5
    --7h8h10p8p7--
    ---------------h10--


    nur der allererste Ton wird angeschlagen. Klingt cool wenn man die Sequenz schnell wiederholt. Tonart Em.
     
  6. DaveN

    DaveN Registrierter Benutzer

    Im Board seit:
    16.09.04
    Zuletzt hier:
    25.01.10
    Beiträge:
    454
    Zustimmungen:
    0
    Kekse:
    413
    Erstellt: 06.11.04   #6
    Ganz einfach die Tonleitern oder Pentatoniken mit Hammer-ons und Pull-offs hoch und runterspielen... Mach ich immer so :)
     
  7. Godsound

    Godsound Gesperrter Benutzer

    Im Board seit:
    16.08.04
    Zuletzt hier:
    20.10.06
    Beiträge:
    218
    Zustimmungen:
    1
    Kekse:
    10
  8. Comrade

    Comrade Registrierter Benutzer

    Im Board seit:
    19.02.04
    Zuletzt hier:
    4.01.14
    Beiträge:
    1.894
    Ort:
    Ingolstadt
    Zustimmungen:
    2
    Kekse:
    276
    Erstellt: 06.11.04   #8
    Leider ohne Ryhthmus oder Hörbeispiel...
     
  9. Duempi

    Duempi Registrierter Benutzer

    Im Board seit:
    03.10.04
    Zuletzt hier:
    5.10.16
    Beiträge:
    198
    Ort:
    Dresden
    Zustimmungen:
    0
    Kekse:
    19
    Erstellt: 06.11.04   #9
    |--10t5h8----------------------------------------|
    |---------10t5h8---------------------------------|
    |----------------9t5h7---------------------------|
    |----------------------10t5h7--------------------|
    |-----------------------------10t5h7-------------|
    |------------------------------------10t5h8h5----|


    --10t5h8-----------------------------------------------|
    ---------10t5h8-------10t5h8---------------------------|
    ----------------9t5h7--------9t5h7--------9t5h7--------|
    -----------------------------------10t5h7-------10t5h7-|
    -------------------------------------------------------|
    -------------------------------------------------------|


    ---------------------------------------|----------||
    ---------------------------------------|----------||
    ---------------------------------------|----------||
    ---------10t5h7------------------------|----------||
    --10t5h7--------10t5h7-----------------|----------||
    -----------------------10t5h8h5--------|----------||


    ausm RockHard irgentwann
     
  10. Ayu

    Ayu Registrierter Benutzer

    Im Board seit:
    09.08.04
    Zuletzt hier:
    10.03.05
    Beiträge:
    527
    Ort:
    Jona -> St.Gallen
    Zustimmungen:
    2
    Kekse:
    36
    Erstellt: 07.11.04   #10
    Ja, würde diesen Lick gerne mal hören,kann es mir zwar denken aber diesen Lick richtig schnell gespielt zu hören wäre cool.
    Also wenn jemand im Stande ist diesen Lick zu spielen ;) dann soll er die Aufnahmen hier rein stellen! :great:
     
  11. Julian

    Julian Registrierter Benutzer

    Im Board seit:
    20.03.04
    Zuletzt hier:
    1.12.16
    Beiträge:
    2.038
    Zustimmungen:
    806
    Kekse:
    19.643
    Erstellt: 07.11.04   #11
    Hmmm, also hammerons kann ich wirklich gut, aber bei den POs hapert es ein wenig. Die "übung" von klausP klingt bei mir bei den POs einfach nicht mehr, wenns schneller wird (üb so was allerdings nur unplugged, mim amp isses ja viel einfacher). Gibts da was um das zu verbessern ? Ich zieh den finger irgendwie zu wenig nach unten weg, heb ihn nur schnell hoch, glaube ich.. hmm...
     
  12. KlausP

    KlausP HCA Gitarre HCA

    Im Board seit:
    25.01.04
    Zuletzt hier:
    14.07.11
    Beiträge:
    6.293
    Ort:
    Franken
    Zustimmungen:
    10
    Kekse:
    13.246
    Erstellt: 07.11.04   #12
  13. KlausP

    KlausP HCA Gitarre HCA

    Im Board seit:
    25.01.04
    Zuletzt hier:
    14.07.11
    Beiträge:
    6.293
    Ort:
    Franken
    Zustimmungen:
    10
    Kekse:
    13.246
    Erstellt: 07.11.04   #13
    so, jetzt habe ich auch schnell noch das Beispiel mal gespielt das Godsound gepostet hat. Bißchen unsauber zwar :D
    Die Tabs hauen aber m.E. so nicht hin, das könnte ich niemals spielen, kleiner Finger am 17.Bund und Zeigefinger am 10. Bund.

    http://mitglied.lycos.de/systrader/music/hopo_dem1.mp3
     
  14. Godsound

    Godsound Gesperrter Benutzer

    Im Board seit:
    16.08.04
    Zuletzt hier:
    20.10.06
    Beiträge:
    218
    Zustimmungen:
    1
    Kekse:
    10
    Erstellt: 10.11.04   #14
    Dies soll ja auch noch eine gute DEHNÜBUNG sein! Am Anfang ist es schwer aber wenn man das immer wieder als Aufwärmübung (5min.) benützt, dann geht es schon.

    Die Spinne von "Rock Guitar Secrets" macht auch einigen am Anfang Probleme.

    Wichtig: Langsam anfangen (50 bpm) und nicht gleich 140 bpm. Aufnahme folgt noch, versprochen!
     
  15. KlausP

    KlausP HCA Gitarre HCA

    Im Board seit:
    25.01.04
    Zuletzt hier:
    14.07.11
    Beiträge:
    6.293
    Ort:
    Franken
    Zustimmungen:
    10
    Kekse:
    13.246
    Erstellt: 10.11.04   #15
    sag bloß du spielst das so wie es da notiert ist. Anders geht es viel einfacher. Von 17 auf 10, no way für mich :D
     
  16. Godsound

    Godsound Gesperrter Benutzer

    Im Board seit:
    16.08.04
    Zuletzt hier:
    20.10.06
    Beiträge:
    218
    Zustimmungen:
    1
    Kekse:
    10
    Erstellt: 10.11.04   #16
    @Klaus
    Da ich erst dieses Jahr wieder zur Gitarre Griff (ca.5 Jahre Pause) mache ich gerne solche Übungen.

    Hier meine eigene Übung für dehnbare Finger

    h-Saite -10-13-15-18-15-13-10-13-15-18-13-usw. im Wechselschlag wobei Tempo nicht so wichtig.

    Habe es mal aufgenommen (Dauern ein bisschen die Downloads)

    Und hier dieses Lick wobei man es schon hört das ich Pause hatte :o

    Lick
     
  17. thomas.h

    thomas.h Registrierter Benutzer

    Im Board seit:
    19.08.03
    Zuletzt hier:
    13.11.16
    Beiträge:
    2.925
    Zustimmungen:
    36
    Kekse:
    5.502
    Erstellt: 10.11.04   #17
    ------------------------------------------------------------------------
    ------------------------------------------------------------------------
    ---------------------------------------------------------4-5-7-5-4-5-7-
    ------------------------------------------4-5-7-5-4-5-7----------------
    ----------------2-3-5-3-2-3-5-7-5-3-5-7-------------------------------
    -2-3-5-3-2-3-5---------------------------------------------------------


    ----------------------------------7-8-10-8-7-8-10-12-10-8-10-12-
    -----------------7-8-10-8-7-8-10---------------------------------
    -9-7-5-7-5-7-9---------------------------------------------------
    ------------------------------------------------------------------
    ------------------------------------------------------------------
    ------------------------------------------------------------------
    -> und wieder nach unten.
    Die Petrucciübung, find ich recht gut. Ich nehms vielleicht noch auf, wenn mir der Technikgott froh gesinnt ist.
     
  18. malteser

    malteser Registrierter Benutzer

    Im Board seit:
    18.01.04
    Zuletzt hier:
    12.05.08
    Beiträge:
    146
    Ort:
    Düsseldorf
    Zustimmungen:
    0
    Kekse:
    96
    Erstellt: 11.11.04   #18
    Wenn man schon gut mit 3nps Patterns zurecht kommt und noch große Streckungen und Intervalle üben will ist das Lick auch nicht schlecht:

    E||-----------11h14h17h14h11-------||
    B||----------------------------------||
    G||--11h14h17----------------17h14-||
    D||----------------------------------||
    A||----------------------------------||
    E||----------------------------------||

    Klingt geil wenn man das sau schnell spielt und/oder noch ein C tappt.
     
  19. Godsound

    Godsound Gesperrter Benutzer

    Im Board seit:
    16.08.04
    Zuletzt hier:
    20.10.06
    Beiträge:
    218
    Zustimmungen:
    1
    Kekse:
    10
    Erstellt: 11.11.04   #19
    @ PIM
    Vergiss den Technikgott...das ist hier keine Prüfung sondern FUN! ;)
     
  20. thomas.h

    thomas.h Registrierter Benutzer

    Im Board seit:
    19.08.03
    Zuletzt hier:
    13.11.16
    Beiträge:
    2.925
    Zustimmungen:
    36
    Kekse:
    5.502
    Erstellt: 11.11.04   #20
    Heyhey, Technik IST Fun!! ;)
     
Die Seite wird geladen...

mapping