verdammte Soli...wie steig ich dahinter???

von Troublemaker, 09.05.04.

  1. Troublemaker

    Troublemaker Registrierter Benutzer

    Im Board seit:
    18.08.03
    Zuletzt hier:
    26.03.05
    Beiträge:
    110
    Zustimmungen:
    0
    Kekse:
    10
    Erstellt: 09.05.04   #1
    hi zusammen,

    ich dreh jetzt die ganzen standart threads einfach mal um und schreib nicht "bin ich gut wenn ich des und des solo in ein paar tagen kann" sondern "bin ich schlecht wenn ich des solo nach monaten nicht kann"
    ne also jetzt mal spass beiseite. ich hab mir des metallica black album songbook zugelegt und wollt mir mal des solo von nothing else matters und enter sandman genauer anschaun. ersteres klappt schon ganz gut, aber beim zweiten komm ich überhaupt nicht weiter. fragt mich nicht warum. ich vermute es liegt einfach an meiner (nichtvorhandenen?!?) technik. vielleicht is des ganze auch einfach zu schnell... ich weiss es nicht.
    hat jemand von euch nen tipp wie ich des auf die reihe bekomm, generell nicht nur bezogen auf enter sandman?
    vielen dank schon mal für eure hilfe
    grüße

    der verzweifelnde chris :(
     
  2. black-skull

    black-skull Registrierter Benutzer

    Im Board seit:
    21.12.03
    Zuletzt hier:
    26.06.16
    Beiträge:
    1.488
    Zustimmungen:
    3
    Kekse:
    156
    Erstellt: 09.05.04   #2
    wie immer langsam anfangen ,so dass du es spielen kannst ,egal wie langsam :)

    und dann ganz oft spielen und immer schneller werden!
     
  3. Guitarman

    Guitarman Registrierter Benutzer

    Im Board seit:
    22.09.03
    Zuletzt hier:
    27.04.06
    Beiträge:
    20
    Zustimmungen:
    0
    Kekse:
    10
    Erstellt: 09.05.04   #3
    Das Metronom auf 60 od. 80 stellen und spielen. Wenn es dann endlich klappt üben und in 10er schritten steigern.
     
  4. Troublemaker

    Troublemaker Threadersteller Registrierter Benutzer

    Im Board seit:
    18.08.03
    Zuletzt hier:
    26.03.05
    Beiträge:
    110
    Zustimmungen:
    0
    Kekse:
    10
    Erstellt: 09.05.04   #4
    ja des mit dem langsam spielen is schon klar, aber dadurch wird meine technik ja auch nicht besser....und wenn ich dann versuch es schnell zu spielen setzts auch schon wieder aus. was kann ich denn da üben damit ich beim schnellen spielen auch sauber spiele?
     
  5. Zielscheibe

    Zielscheibe Registrierter Benutzer

    Im Board seit:
    28.04.04
    Zuletzt hier:
    17.11.05
    Beiträge:
    17
    Zustimmungen:
    0
    Kekse:
    10
    Erstellt: 09.05.04   #5
    Und genau da liegst du falsch. Es ist anfangs zwar etwas deprimierend, die Geschwindigkeit runter zu drehen, aber wenn du langsam nicht sauber lernst zu spielen, kannst du dir auch schnell und sauber aus dem Kopf schlagen.
    Ich hab anfangs genauso gedacht, aber sobald man seine Fortschritte in Sachen Sauberkeit bemerkt, gehts spaßtechnisch auch wieder bergauf :).
     
  6. KlausP

    KlausP HCA Gitarre HCA

    Im Board seit:
    25.01.04
    Zuletzt hier:
    14.07.11
    Beiträge:
    6.293
    Ort:
    Franken
    Zustimmungen:
    10
    Kekse:
    13.246
    Erstellt: 09.05.04   #6
    Absolut richtig! Dieser post ist Gold wert.
    Schnellen Krampf kann jeder irgendwann spielen (ich auch!) aber schnell und sauber - das lernt man nur wenn man das saubere Spielen von Grund auf lernt, d.h. laaaaaaaaaangsam!
    Jeder gute Gitarrenlehrer wird dich zwingen das so zu tun!
     
  7. Troublemaker

    Troublemaker Threadersteller Registrierter Benutzer

    Im Board seit:
    18.08.03
    Zuletzt hier:
    26.03.05
    Beiträge:
    110
    Zustimmungen:
    0
    Kekse:
    10
    Erstellt: 09.05.04   #7
    aber auch wenn ich langsam spiel brauch ich doch ein gewisses können (auf die technik bezogen). nehmen wir einfach mal folgendes beispiel (ob es richtig ist oder nicht ist ja egal)

    E :-----------------|----------------------|---------------------------|
    B :--------------15-|--15-15-12----12------|-----12-12----15---15-(15)-|
    G :-----------------|-----------14------14-|(14)-------14--------------|
    D :-----------------|----------------------|---------------------------|
    A :-----------------|----------------------|---------------------------|
    E :-----------------|----------------------|---------------------------|


    E :-----------------------------------------------|
    B :-----------------------------------------------|
    G :12-14-14-14-14-12-12-12-12-14-14-14-14-12-12-12|
    D :-----------------------------------------------|
    A :-----------------------------------------------|
    E :-----------------------------------------------|


    E :-----------------------------------|
    B :-----------------------------------|
    G :14-12------------------------------|
    D :------14-14-12---------------------|
    A :---------------14-14-12-10---------|
    E :---------------------------12-(12)-|


    E :---12-12-12----12-12-12----12-12-12----12-12-12|
    B :15----------15----------15----------15---------|
    G :-----------------------------------------------|
    D :-----------------------------------------------|
    A :-----------------------------------------------|
    E :-----------------------------------------------|


    E :---12-12-12-15-12-12-15-12-12-15-12-12-15-12-14|
    B :15---------------------------------------------|
    G :-----------------------------------------------|
    D :-----------------------------------------------|
    A :-----------------------------------------------|
    E :-----------------------------------------------|


    E :17-14----17-14----17-14-19-15----19-15----19-15|
    B :------15-------15-------------17-------17------|
    G :-----------------------------------------------|
    D :-----------------------------------------------|
    A :-----------------------------------------------|
    E :-----------------------------------------------|


    E :21-17----21-17----21-17----22-24-22---|------------------|
    B :------17-------17-------17----------9-|(9)---9-----9-----|
    G :------------------------------------9-|(9)---9-----9-----|
    D :--------------------------------------|------------------|
    A :--------------------------------------|------------------|
    E :--------------------------------------|------------------|


    E :---------------------|-------------------------------|
    B :9---9--------------10|(10)---10-8-7---8-7---7--------|
    G :9---9---7-9------7---|--------------9-----9---9-7---7|
    D :-------------7-9-----|----------------------------9--|
    A :---------------------|-------------------------------|
    E :---------------------|-------------------------------|


    E :-----------------------------|---------------------------|
    B :-----------------------------|---------------------------|
    G :9-7--------------------------|16-14------14-16-14------14|
    D :----9-7---7-9-7--------------|------16------------16-----|
    A :--------9-------9-8-7--------|---------------------------|
    E :----------------------10-7---|---------------------------|


    E :----------------------------|-----------------------|
    B :----------------------------|---17----17------17----|
    G :16-14------14-16-14-------14|16----16----16------16-|
    D :------16------------16-16---|-----------------------|
    A :----------------------------|-----------------------|
    E :----------------------------|-----------------------|


    E :-------------------|21-17----21-17----21-17----21-17----21-17----21|
    B :-------------------|------17-------17-------17-------17-------17---|
    G 16---------------|-----------------------------------------------|
    D :-------------------|-----------------------------------------------|
    A :-------------------|-----------------------------------------------|
    E :-------------------|-----------------------------------------------|


    E :22-24-24-22-24-24-22-----(22)-|-------------------------|
    B :------------------------------|--10-8-7-----------------|
    G :------------------------------|---------9-9-7-----------|
    D :------------------------------|---------------9-9-7-5-7-|
    A :------------------------------|-------------------------|
    E :------------------------------|-------------------------|

    wie spiele ich bei hoher geschwindigkeit sauber in den hohen lagen wie z.b.

    E :17-14----17-14----17-14-19-15----19-15----19-15|
    B :------15-------15-------------17-------17------|
    G :-----------------------------------------------|
    D :-----------------------------------------------|
    A :-----------------------------------------------|
    E :-----------------------------------------------|

    E :-------------------|21-17----21-17----21-17----21-17----21-17----21|
    B :-------------------|------17-------17-------17-------17-------17---|
    G 16---------------|-----------------------------------------------|
    D :-------------------|-----------------------------------------------|
    A :-------------------|-----------------------------------------------|
    E :-------------------|-----------------------------------------------|

    und wie bekommen ich schnellere läufe gut hin? bsp:
    E :-----------------------------|
    B :-----------------------------|
    G :9-7--------------------------|
    D :----9-7---7-9-7--------------|
    A :--------9-------9-8-7--------|
    E :----------------------10-7---|

    und zu guter letzt wie mach ich des wenn bendings kommen und gleich danach ein normaler ton und dann oft wiederholt?
     
  8. cYaONE

    cYaONE Registrierter Benutzer

    Im Board seit:
    09.04.04
    Zuletzt hier:
    15.04.15
    Beiträge:
    14
    Ort:
    Unterfranken
    Zustimmungen:
    5
    Kekse:
    654
    Erstellt: 09.05.04   #8
    Üben, Üben, Üben!

    Schnelligkeit und Genauigkeit kommt mit der Zeit automatisch!

    PS: Irgendwann einmal wirst du (vielleicht) sagen, dass Metallica garnicht so schwer ist, wie es viele behaupten!
     
  9. kleinershredder

    kleinershredder Registrierter Benutzer

    Im Board seit:
    23.02.04
    Zuletzt hier:
    20.06.11
    Beiträge:
    2.569
    Ort:
    Kierspe
    Zustimmungen:
    8
    Kekse:
    698
    Erstellt: 10.05.04   #9
    das wichtigste ist das du nicht Hektisch mit der linken Hand hin und herspringst. Deine Linke Hand hat 4 Finger mit denen Du greifen kannst. Also überleg dir vorher einen Fingersatz bei denen du deine Linke Hand nur minimal bewegen musst. Und das mit dem sauberspielen in hohen lagen ist so. Viele machen den Fehler wenn z.B. auf der E-Saite gespielt wird und dann auf die H-Saite gewechselt wird das sie dann den Ton auf der E-Saite klingen lassen. Wenn man das so macht gibt es irgentwann Tonbrei. also auch immer daran denken die Finger aus den bünden die nicht mehr klingen sollen rauszunemen.
    Bei Solis am besten immer den Ton direkt wegnemen wenn der neue da ist.
     
Die Seite wird geladen...

mapping