Viele Versionen eines parts der Tabulatur von "System of a Down - B.Y.O.B."

von kerngehirn, 10.08.07.

  1. kerngehirn

    kerngehirn Registrierter Benutzer

    Im Board seit:
    30.04.06
    Zuletzt hier:
    1.12.12
    Beiträge:
    83
    Ort:
    Altrip
    Zustimmungen:
    0
    Kekse:
    10
    Erstellt: 10.08.07   #1
    Hi.

    Hab Probleme mit einem Part bei der Tabulatur von byob.
    Im Refrain wird folgender Part:

    -mal so:

    --------------------------------------|--------------------------------|
    --------------------------------------|--------------------------------|
    --------------------------------------|--------5-----5----------------|
    --------------------------------------|--------5-----5----------3-2-0|
    2-3-0--0----0--2--3--5--3--2--0--|--2--0--3-----3----0-3-0------|
    2-3-0--0----0--2--3--5--3--2--0--|--2--0--------------------------|

    -mal so:

    --------------------------------------|--------------------------------|
    --------------------------------------|--------------------------------|
    --------------------------------------|--------5-----5----------------|
    --------------------------------------|--------5-----5----------3-2-0|
    2-3-0--0----0--2--3--5--3--2--0--|--2--0--3-----3----0-2-3------|
    2-3-0--0----0--2--3--5--3--2--0--|--2--0--------------------------|

    -mal so:

    --------------------------------------|--------------------------------|
    --------------------------------------|--------------------------------|
    --------------------------------------|--------5-----5----------------|
    --------------------------------------|--------5-----5----------3-2-0|
    2-3-0--0----0--2--3--5--3--2--0--|--2--0--3-----3----0-3-5------|
    2-3-0--0----0--2--3--5--3--2--0--|--2--0--------------------------|

    dargestellt.
    Hier spiele ich auf die letzten 6 Töne an.

    Desweiteren wird unterschiedlich dargestellt:

    -mal so:

    --------------------------------------|--------------------------------|
    --------------------------------------|--------------------------------|
    --------------------------------------|--------5-----5----------------|
    --------------------------------------|--------5-----5----------x-x-x|
    2-3-0--0----0--2--3--5--3--2--0--|--2--0--3-----3----x-x-x------|
    2-3-0--0----0--2--3--5--3--2--0--|--2--0--------------------------|

    -und mal so:

    --------------------------------------|--------------------------------|
    --------------------------------------|--------------------------------|
    --------------------------------------|--------5-----5----------------|
    --------------------------------------|--------5-----5----------x-x-x|
    3-2-0--0----0--2--3--5--3--2--0--|--2--0--3-----3----x-x-x------|
    3-2-0--0----0--2--3--5--3--2--0--|--2--0--------------------------|

    Diesmal die ersten 3 Töne die mich beschäftigen.



    Leider bin ich auf Grund der Spielgeschwindigkeit im Song nicht in der Lage die kerrekte Version rauszuhören.
    Bin also auf eure Hilfe angewiesen.

    Vielen Dank
     
  2. Mogadischu

    Mogadischu Registrierter Benutzer

    Im Board seit:
    22.01.04
    Beiträge:
    1.445
    Ort:
    D:\Sachsen\Leipzig
    Zustimmungen:
    324
    Kekse:
    4.392
    Erstellt: 10.08.07   #2
    Jeweils Version 2. Hört sich am richtigsten an, meines Erachtens nach.
     
  3. Santa Muerte

    Santa Muerte Registrierter Benutzer

    Im Board seit:
    03.07.06
    Zuletzt hier:
    13.10.09
    Beiträge:
    14
    Ort:
    Brunswick
    Zustimmungen:
    1
    Kekse:
    25
    Erstellt: 10.08.07   #3
    Tach,
    hätte folgende Version anzubieten:

    -----------------------------------------------------------------------
    ----------------------------------------------------------------------
    ---------------------------------------------------------------------
    --3---2---0------0-------0---2---3---5---3---2---0-|--2---0---5-----5---
    --3---2---0------0-------0---2---3---5---3---2---0-|--2---0---3-----3---
    --3---2---0------0-------0---2---3---5---3---2---0-|--2---0-------------


    ------------------------------------------------------------------
    ------------------------------------------------------------------
    ------------------------------------------------------------------
    --------- 0---3-p-2---0--------------------------------
    --0---3-----------------------------------------------------
    ------------------------------------------------------------------


    Gruss Alex
     
  4. maks26

    maks26 Registrierter Benutzer

    Im Board seit:
    08.12.04
    Zuletzt hier:
    29.06.14
    Beiträge:
    507
    Zustimmungen:
    0
    Kekse:
    29
    Erstellt: 10.08.07   #4
    Die is auch richtig meiner Meinung nach.

    @kerngehirn: bei dir fangen alle Tabs falsch an mit dem 2 und 3 ... es geht ja 3 2 0 ..
    aber vllt wars ja ein tippfehler
     
  5. maks26

    maks26 Registrierter Benutzer

    Im Board seit:
    08.12.04
    Zuletzt hier:
    29.06.14
    Beiträge:
    507
    Zustimmungen:
    0
    Kekse:
    29
    Erstellt: 10.08.07   #5
    Sorry dass ich nochmal poste ... zu faul für die Editierfunktion jetzt ;)

    Ja, genau DIESE ersten 3 Töne stimmen jetzt, also 3 2 0 !
    Und hörs dir bitte nochmal genau an, sooo schnell ist das wirklich nicht, das solltest du eig schon raushörn, dass die Melodie runtergeht also 3 2 0 ... und nich 2 3 0 ;)

    bye
     
  6. kerngehirn

    kerngehirn Threadersteller Registrierter Benutzer

    Im Board seit:
    30.04.06
    Zuletzt hier:
    1.12.12
    Beiträge:
    83
    Ort:
    Altrip
    Zustimmungen:
    0
    Kekse:
    10
    Erstellt: 11.08.07   #6
    es ist ja so, dass die version von santa muerte die gleiche ist, wie meine 3., mit der ausnahme, dasss der anfang eben anders ist.

    @ maks26: wenn ich 230 spiele geht die melodie ja letztendlich auch runter. auf 0 eben. und wenn ich es spiele, in der richtigen geschwindigkeit, kann ich absolut nicht sagen was sich richtiger anhört.
     
  7. maks26

    maks26 Registrierter Benutzer

    Im Board seit:
    08.12.04
    Zuletzt hier:
    29.06.14
    Beiträge:
    507
    Zustimmungen:
    0
    Kekse:
    29
    Erstellt: 11.08.07   #7
    Ja ich hab halt gmeint "durchgehent runter gehend" :great:
    Auch wenn dus nicht hörst .... es gehört 3 2 0 ;)
     
  8. kerngehirn

    kerngehirn Threadersteller Registrierter Benutzer

    Im Board seit:
    30.04.06
    Zuletzt hier:
    1.12.12
    Beiträge:
    83
    Ort:
    Altrip
    Zustimmungen:
    0
    Kekse:
    10
    Erstellt: 11.08.07   #8
    wenn du so sicher bist, dann glaub ichs. habs nur echt nich gehört. und eigentlich hab ich n ganz gutes musikgehör. bei dem system zeug is des aber schwierig weil des alles so ein brei is ;)
     
  9. maks26

    maks26 Registrierter Benutzer

    Im Board seit:
    08.12.04
    Zuletzt hier:
    29.06.14
    Beiträge:
    507
    Zustimmungen:
    0
    Kekse:
    29
    Erstellt: 11.08.07   #9
    hey hey , vorsicht mit der brei-aussage da , bin ein großer system fan ;)
    na, ich weiß eh wast meinst ....
    und ja, ich bin mir seeehr seeehr sicher, und auch ich würd mein musikgehör ohne weiteres als "ganz gut" einstufen :D
    schönen samstag abnd noch
     
Die Seite wird geladen...

mapping