wa ist den bei tabs hoch und tief help me

von gobbels3000, 15.02.07.

  1. gobbels3000

    gobbels3000 Registrierter Benutzer

    Im Board seit:
    15.02.07
    Zuletzt hier:
    15.02.07
    Beiträge:
    5
    Zustimmungen:
    0
    Kekse:
    10
    Erstellt: 15.02.07   #1
    Hllo ich hab mal eine frage über tabs sind undzwar was ist den hoch und tief oder wie liest man die überhaupt z.b diese please help me

    |----------------------------|
    |---------6-6-6-------6------|
    |--6-6-6--6-6-6--4-4--6-6-4--|
    |--6-6-6--4-4-4--4-4--4-6-4--|
    |--4-4-4---------2-2----4-2--|



    |-------------------------------------|
    |-------------------------------------|
    |-66666666----------88888888----------|
    |-66666666-66666666-88888888-66666666-|
    |-44444444-66666666-66666666-66666666-|
    |----------44444444----------44444444-|
     
  2. -the-strokes-

    -the-strokes- Registrierter Benutzer

    Im Board seit:
    07.11.05
    Zuletzt hier:
    8.12.16
    Beiträge:
    448
    Zustimmungen:
    0
    Kekse:
    18
    Erstellt: 15.02.07   #2
    gibts sicher einiges in der sufu...

    die linien sin die 6 saiten deiner gitte... die unterste is die tiefe e.. die obserte die hohe e saite.

    die zahlen die entdsprechenden bünde, wo du auf der saite greifen musst. sind alles sog. powerchords, was du da gepostet hast.
    also ein festes griffmuster, was du überallhin verschieben kanns. zumindest auf der tiefen E und der a saite.

    greez
     
  3. gobbels3000

    gobbels3000 Threadersteller Registrierter Benutzer

    Im Board seit:
    15.02.07
    Zuletzt hier:
    15.02.07
    Beiträge:
    5
    Zustimmungen:
    0
    Kekse:
    10
    Erstellt: 15.02.07   #3
    Danke für die antwort aber ich meinte eigentlich diese punkte für hoch und tief
     
  4. you

    you Registrierter Benutzer

    Im Board seit:
    14.08.06
    Zuletzt hier:
    11.03.13
    Beiträge:
    588
    Zustimmungen:
    1
    Kekse:
    884
    Erstellt: 15.02.07   #4
    Aber du solltest wissen das das bei dir alles ziemlich schief notiert ist. (oder liegt das an mir)
    Net das du jetz anfängst und spielst es ganau wies notiert ist

    |-----------------------------------------|
    |------------6-6-6----------6-----------|
    |---6-6-6---6-6-6---4-4---6---6---4--|
    |---6-6-6---4-4-4---4-4---4---6---4--|
    |---4-4-4------------2-2--------4---2--|



    |---------------------------------------------------------------------------------|
    |---------------------------------------------------------------------------------|
    |-6-6-6-6-6-6-6-6----------------------8-8-8-8-8-8-8-8---------------------|
    |-6-6-6-6-6-6-6-6--6-6-6-6-6-6-6-6--8-8-8-8-8-8-8-8--6-6-6-6-6-6-6-6-|
    |-4-4-4-4-4-4-4-4--6-6-6-6-6-6-6-6--6-6-6-6-6-6-6-6--6-6-6-6-6-6-6-6-|
    |---------------------4-4-4-4-4-4-4-4----------------------4-4-4-4-4-4-4-4-|

    hab das ganze mal en bischen formatiert/expandiert.

    edit: da gibts keine punkte. Die - stellen lediglich die Saiten da. Es ist so zu lesen wie wenn du deine Gitarre auf den schoß legst. Tiefe E-Saite zu dir hin. Hohe e-Saite von der Weg.
     
  5. gobbels3000

    gobbels3000 Threadersteller Registrierter Benutzer

    Im Board seit:
    15.02.07
    Zuletzt hier:
    15.02.07
    Beiträge:
    5
    Zustimmungen:
    0
    Kekse:
    10
    Erstellt: 15.02.07   #5
    da haste recht aber ich will ja nur wissen was da hoch und tief ist kann ja sein das da erst tie dann hoch und dann wieder tief kommt also die punkte das kenn ich ja
    E HOCH
    h
    G
    D
    A
    E TIEF
    aber ich meine das hier aerfür e-gitarre

    ------I --- ----I ------ I I
    ------I----O---I------ I O I
    ------I---------I------- I O I
    ------I---------I------- I I
     
  6. gobbels3000

    gobbels3000 Threadersteller Registrierter Benutzer

    Im Board seit:
    15.02.07
    Zuletzt hier:
    15.02.07
    Beiträge:
    5
    Zustimmungen:
    0
    Kekse:
    10
    Erstellt: 15.02.07   #6
    achso na dann danke
     
  7. gobbels3000

    gobbels3000 Threadersteller Registrierter Benutzer

    Im Board seit:
    15.02.07
    Zuletzt hier:
    15.02.07
    Beiträge:
    5
    Zustimmungen:
    0
    Kekse:
    10
    Erstellt: 15.02.07   #7
    also ich hab da noch ne frage wie viele Bunds gibt es
     
  8. Maggisus

    Maggisus Registrierter Benutzer

    Im Board seit:
    30.08.06
    Zuletzt hier:
    4.11.16
    Beiträge:
    764
    Zustimmungen:
    0
    Kekse:
    82
    Erstellt: 15.02.07   #8
    Meinst du vielleicht das sie dann leer angeschlagen werden??
    Ich weis nicht ob das das ist was du willst aber wenn du leere Punkte meinst, denk ich das das die Saiten sind wo du leer anschlägst. Keine Ahnung was du meinst ^^
     
  9. Flame-Blade

    Flame-Blade Registrierter Benutzer

    Im Board seit:
    21.09.06
    Zuletzt hier:
    8.12.16
    Beiträge:
    1.547
    Ort:
    Hannover
    Zustimmungen:
    116
    Kekse:
    4.933
    Erstellt: 15.02.07   #9

    es heisst Bünde...die meisten E-Gitarren haben 22 oder 24 davon...gibt aber auch noch mehr


    Und bei den Tabs ist die unterste Linie die tiefe E Saite

    PS: Du kannst Beiträge auch ändern und brauchst nicht immer wieder einen neuen schreiben
     
Die Seite wird geladen...

mapping