was bedeutet E, Q oder H?!

von scabdooBA, 11.02.05.

  1. scabdooBA

    scabdooBA Registrierter Benutzer

    Im Board seit:
    05.12.04
    Zuletzt hier:
    30.01.16
    Beiträge:
    777
    Ort:
    Regensburg, Germany
    Zustimmungen:
    0
    Kekse:
    242
    Erstellt: 11.02.05   #1
    hi
    mich würde mal interesieren was die "E's" oder "H's" über den tabs bedeuten?
    kann mir das hier jemand erklären?
    thx
     
  2. Omni

    Omni Registrierter Benutzer

    Im Board seit:
    07.01.05
    Zuletzt hier:
    6.04.11
    Beiträge:
    217
    Zustimmungen:
    0
    Kekse:
    53
    Erstellt: 11.02.05   #2
    die Hs sind vermutlich Hammer-ons.
     
  3. scabdooBA

    scabdooBA Threadersteller Registrierter Benutzer

    Im Board seit:
    05.12.04
    Zuletzt hier:
    30.01.16
    Beiträge:
    777
    Ort:
    Regensburg, Germany
    Zustimmungen:
    0
    Kekse:
    242
    Erstellt: 11.02.05   #3
    nö das mein ich nicht

    Q H q q H +W E E E E E E E E
    |------------|------------|------------||------------------|
    |------------|-------5----|-(5)--------||o-----------------|
    |-9----------|-7--6--5----|-(5)--------||------------------|
    |-9----------|-7--6--5----|-(5)--------||------------------|
    |-7----------|-5--4--3----|-(3)--------||o-----7-----6-----|
    |-0----------|------------|------------||--0-0---0-0---0-0-|


    PM----------------------------|
    q q H E E E E E E E E E E E E E E E E 4x
    |------------|-----------------|------------------||
    |-------5----|-----------------|-----------------o||
    |-7--6--5----|-----------------|------------------||
    |-7--6--5----|-----------------|------------------||
    |-5--4--3----|-----------------|-----------------o||
    |------------|-0-0-7-0-0-6-0-0-|-5-0-4-0-3-0-2-0--||


    hier ein bsp
     
  4. MrFair

    MrFair Registrierter Benutzer

    Im Board seit:
    28.12.04
    Zuletzt hier:
    28.02.12
    Beiträge:
    703
    Zustimmungen:
    0
    Kekse:
    817
    Erstellt: 11.02.05   #4
    Hab ich noch nie gesehen, erinnert mich aber irgendwie an meine alten Notenbücher von früher, ich bin mir da nicht mehr ganz sicher, aber evtl. geben dir diese Buchstaben den Finger an mit dem du die Saite zupfen sollst, ich hab da irgendwas in Erinnerung, aber das waren glaub auch komplett andere Buchstaben.
     
  5. JimmyPage

    JimmyPage Registrierter Benutzer

    Im Board seit:
    16.09.04
    Zuletzt hier:
    5.07.16
    Beiträge:
    609
    Ort:
    Heidelberg
    Zustimmungen:
    1
    Kekse:
    230
    Erstellt: 11.02.05   #5
    Das sind Notenwerte

    E -> engl. für "eight" = "achtel"
    Q -> engl. für "quarter" = "viertel"
    H -> engl. für "half" = "halbe"

    Greez,
    Jim
     
  6. Pat

    Pat Registrierter Benutzer

    Im Board seit:
    08.09.04
    Zuletzt hier:
    4.05.13
    Beiträge:
    160
    Ort:
    Berlin
    Zustimmungen:
    5
    Kekse:
    124
    Erstellt: 11.02.05   #6
    das sind notenwerte

    Duration Legend
    ---------------
    W - whole; H - half; Q - quarter; E - 8th; S - 16th; T - 32nd; X - 64th; a - acciaccatura
    + - note tied to previous; . - note dotted; .. - note double dotted

    hab die legende dafür jetzt mal aus irgend nem tab kopiert. ich hoffe mal, dass es die selbe ist.
     
  7. scabdooBA

    scabdooBA Threadersteller Registrierter Benutzer

    Im Board seit:
    05.12.04
    Zuletzt hier:
    30.01.16
    Beiträge:
    777
    Ort:
    Regensburg, Germany
    Zustimmungen:
    0
    Kekse:
    242
    Erstellt: 11.02.05   #7
    cool
    thx:great:
     
Die Seite wird geladen...

mapping