Was sind das für Akkorde?

von Madhead, 05.01.06.

  1. Madhead

    Madhead Registrierter Benutzer

    Im Board seit:
    17.04.04
    Zuletzt hier:
    18.11.15
    Beiträge:
    188
    Zustimmungen:
    1
    Kekse:
    159
    Erstellt: 05.01.06   #1
    Kann mir jemand sagen was das für Akkorde sind?
    Die Bezeichnungen reichen mir. Habs schon versucht rauszuhören aber ich kriegs nicht genau auf die Reihe.

    Würde mich freuen wenn einer von euch das schafft!

    Gruß
    Tom

    File: Chords.ogg
     
  2. bartholomew

    bartholomew Registrierter Benutzer

    Im Board seit:
    14.12.05
    Zuletzt hier:
    22.03.06
    Beiträge:
    65
    Ort:
    Österreich, Kärnten
    Zustimmungen:
    0
    Kekse:
    10
    Erstellt: 06.01.06   #2
    mit was für einem prog soll man die datei öffnen?
     
  3. Madhead

    Madhead Threadersteller Registrierter Benutzer

    Im Board seit:
    17.04.04
    Zuletzt hier:
    18.11.15
    Beiträge:
    188
    Zustimmungen:
    1
    Kekse:
    159
    Erstellt: 06.01.06   #3
    Winamp macht das ohne Probleme.
     
  4. Madhead

    Madhead Threadersteller Registrierter Benutzer

    Im Board seit:
    17.04.04
    Zuletzt hier:
    18.11.15
    Beiträge:
    188
    Zustimmungen:
    1
    Kekse:
    159
    Erstellt: 10.01.06   #4
    Keiner ne Idee?
     
  5. Bellini

    Bellini Registrierter Benutzer

    Im Board seit:
    09.10.04
    Zuletzt hier:
    27.12.09
    Beiträge:
    315
    Zustimmungen:
    1
    Kekse:
    83
    Erstellt: 10.01.06   #5
    Ich hörs mir gerade an, klingt für meine Ohren ziemlich Jazzig, aber ich weiß es leider nicht. Ich kann ja mal versuchen es rauszuhören.


    EDIT: Ich versuches, denn ich wills auch wissen, da die ersten Drei Akkorde in Super Mario World (SNES) benutzt werden. :):):)
     
  6. Madhead

    Madhead Threadersteller Registrierter Benutzer

    Im Board seit:
    17.04.04
    Zuletzt hier:
    18.11.15
    Beiträge:
    188
    Zustimmungen:
    1
    Kekse:
    159
    Erstellt: 10.01.06   #6
    Also den Ersten hab ich, der geht so:

    |--9--|
    |--9--|
    |--9--|
    |--7--|
    |--9--|
    |--X--|
     
  7. Bellini

    Bellini Registrierter Benutzer

    Im Board seit:
    09.10.04
    Zuletzt hier:
    27.12.09
    Beiträge:
    315
    Zustimmungen:
    1
    Kekse:
    83
    Erstellt: 10.01.06   #7
    Sicher dass da ein Fis als Grundton ist?
     
  8. Madhead

    Madhead Threadersteller Registrierter Benutzer

    Im Board seit:
    17.04.04
    Zuletzt hier:
    18.11.15
    Beiträge:
    188
    Zustimmungen:
    1
    Kekse:
    159
    Erstellt: 10.01.06   #8
  9. Bellini

    Bellini Registrierter Benutzer

    Im Board seit:
    09.10.04
    Zuletzt hier:
    27.12.09
    Beiträge:
    315
    Zustimmungen:
    1
    Kekse:
    83
    Erstellt: 10.01.06   #9
    Ja, ich seh schon.

    Bei dem hört sichs auch nicht so an wie wenn ich den Akkord spiel.
    Das ist aber bestimmt eine ziemlich bekannte Kadenz zum Schluss, wird bestimmt jemand kennen.
     
  10. Hans_3

    Hans_3 High Competence Award HCA

    Im Board seit:
    09.11.03
    Beiträge:
    16.148
    Zustimmungen:
    1.123
    Kekse:
    49.622
    Erstellt: 11.01.06   #10
    Das ist eine im Jazz häufig vorkommende II-V-I Verbindung

    Moll-Akkord II. Stufe (= Mollparallele der Subdominante)
    Septimakkord V.Stufe/Dominante
    I. Stufe/Tonika/Grundtonart mit maj7

    Im Hörbeispiel mit folgendem Voicing:


    F#maj7/9----H7/13----Emaj7/9

    9----------------------------------------------------
    9--------------9----------7--------------------------
    9--------------8----------8---------------------------
    7--------------7----------9------------------------
    9-------------------------7--------------------------
    ----------------7------------------------------------

    Es folgt noch ein kleiner Schluss mit Bb/E, A/E und Emaj

    ------------------------0----------------------------
    -----3-------2------0------2-----------------------------
    -----3-------2------1-------1------------------------------
    -----3-------2------1--------1----------------------------
    -------------------------------2----------------------
    0--------0-------0--------------0-------------------------------
     
  11. Hans_3

    Hans_3 High Competence Award HCA

    Im Board seit:
    09.11.03
    Beiträge:
    16.148
    Zustimmungen:
    1.123
    Kekse:
    49.622
    Erstellt: 11.01.06   #11
    Das ist eine im Jazz häufig vorkommende II-V-I Verbindung

    Moll-Akkord II. Stufe (= Mollparallele der Subdominante)
    Septimakkord V.Stufe/Dominante
    I. Stufe/Tonika/Grundtonart mit maj7

    Im Hörbeispiel mit folgendem Voicing:


    F#maj7/9----H7/13----Emaj7/9

    9----------------------------------------------------
    9--------------9----------7--------------------------
    9--------------8----------8---------------------------
    7--------------7----------9------------------------
    9-------------------------7--------------------------
    ----------------7------------------------------------

    Es folgt noch ein kleiner Schluss mit Bb/E, A/E und Emaj

    ------------------------0----------------------------
    -----3-------2------0------0-----------------------------
    -----3-------2------1-------1------------------------------
    -----3-------2------1--------1----------------------------
    -------------------------------2----------------------
    0--------0-------0--------------0-------------------------------


    Tipp: Ich habe die *ogg übrigens mit dem Freeware-Programm Media Monkey geöffnet. Klasse Teil, erstellt und verwaltet auch Playlists, erstellt MP3 in verschienden Qualitäten, konvertiert alle möglichen Formate, rippt (nicht kopiergeschütze) CDs usw. Schon seit langem mein Allrounder-Favourit. Ich hab die Freeware-Version seit 3 Jahren, null Probleme.

    http://www.mediamonkey.com
     
  12. Madhead

    Madhead Threadersteller Registrierter Benutzer

    Im Board seit:
    17.04.04
    Zuletzt hier:
    18.11.15
    Beiträge:
    188
    Zustimmungen:
    1
    Kekse:
    159
    Erstellt: 11.01.06   #12
    Hey klasse! Das sind sie, viiielen Dank!

    Gruß
    Tom
     
  13. Bellini

    Bellini Registrierter Benutzer

    Im Board seit:
    09.10.04
    Zuletzt hier:
    27.12.09
    Beiträge:
    315
    Zustimmungen:
    1
    Kekse:
    83
    Erstellt: 11.01.06   #13
    Ja, vielen Dank.
     
Die Seite wird geladen...

mapping