Weihnachtslieder Tabs

von Schlendrian, 15.11.04.

  1. Schlendrian

    Schlendrian Registrierter Benutzer

    Im Board seit:
    15.01.04
    Beiträge:
    236
    Zustimmungen:
    0
    Kekse:
    37
    Erstellt: 15.11.04   #1
    hi zusammen,

    ein freund und ich planen ein kleines weihnachtsspecial in form von rock/weihnachtslieder duett. leider hab ich noch keine tabs von gängigen weihnachtslieder gefunden, hat jemand evtl welche?

    Übrigens, wer noch Weihnachtslieder sucht.. hier gibts Infos wie man günstig & kostenlos an welche heran kommt:
    Weihnachtslieder downloaden

    danke im vorraus + gruss
     
  2. Zahraa

    Zahraa Registrierter Benutzer

    Im Board seit:
    30.10.04
    Zuletzt hier:
    16.08.08
    Beiträge:
    15
    Ort:
    Bonn
    Zustimmungen:
    0
    Kekse:
    10
    Erstellt: 15.11.04   #2
    Das soll „Heilige Nacht“ sein. Ich hoffe das es gut nachzuvollziehen ist und das ich keinen Fehler gemacht habe.
    Veil Erfolg :great:

    e --------------------------------------
    H ---------------------3-3-0-1-1-------
    G -0-2-0----0-2-0----------------0-----
    D -------2--------2---------------------
    A ---------------------------------------
    E ---------------------------------------

    e -------------------------------------------1-------0---
    H -----1-0-----------------1-0-----------3-3---3-0-1-----
    G -2-2-----2-0-2-0-----2-2----2-0-2-0--------------------
    D ------------------2------------------2-------------------
    A ---------------------------------------------------------
    E ---------------------------------------------------------

    e -------------------
    H -1-----------------
    G ---0---0-----------
    D -----2---3-0-------
    A --------------3-----
    E ---------------------
     
  3. Libertines

    Libertines Registrierter Benutzer

    Im Board seit:
    03.01.04
    Zuletzt hier:
    17.09.10
    Beiträge:
    1.731
    Ort:
    Halle, Sachsen-Anstalt
    Zustimmungen:
    2
    Kekse:
    732
    Erstellt: 15.11.04   #3
    cool! klingt wirklich so :D :great:
     
  4. Ayu

    Ayu Registrierter Benutzer

    Im Board seit:
    09.08.04
    Zuletzt hier:
    10.03.05
    Beiträge:
    527
    Ort:
    Jona -> St.Gallen
    Zustimmungen:
    2
    Kekse:
    36
    Erstellt: 15.11.04   #4
    Hier noch Jingle Bells:


    e|--0-0-0-----0-0-0-----0-3-----0-|-1-1-1-1-1-0-0-0-0-----0
    b|--------------------------1-3---|-------------------3-3--
    g|--------------------------------|------------------------
    d|--------------------------------|------------------------
    a|--------------------------------|------------------------
    E|--------------------------------|------------------------

    e|--3--0-0-0----0-0-0----0-3-----0-|--1-1-1-1-1-0-0-0-3-3-1
    b|3--------------------------1-3---|-----------------------
    g|---------------------------------|
    d|---------------------------------|
    a|---------------------------------|
    E|---------------------------------|

    e|---------------------------------------------------------
    b|3-1------------------------------------------------------
    g|---------------------------------------------------------
    d|---------------------------------------------------------
    a|---------------------------------------------------------
    E|--------------------------------------------------------- :great:
     
  5. Zahraa

    Zahraa Registrierter Benutzer

    Im Board seit:
    30.10.04
    Zuletzt hier:
    16.08.08
    Beiträge:
    15
    Ort:
    Bonn
    Zustimmungen:
    0
    Kekse:
    10
    Erstellt: 15.11.04   #5
    Danke, Danke!
    Das ist ja auch eins der wenigen Lieder die ich ganz durch spielen kann. :D Stolz!
    Sonst kann ich noch „Happy Birthday“ und den Anfang von „Pipi langstrumpf“......Ja......das war es auch! :confused:
     
  6. humbuk

    humbuk Registrierter Benutzer

    Im Board seit:
    16.06.04
    Zuletzt hier:
    12.08.09
    Beiträge:
    87
    Ort:
    Köln
    Zustimmungen:
    0
    Kekse:
    25
    Erstellt: 15.11.04   #6
    Pipi!!!! kannst du das tab mal aufschreiben? :rock: :D
     
  7. dotvoid

    dotvoid Registrierter Benutzer

    Im Board seit:
    15.05.04
    Zuletzt hier:
    23.10.10
    Beiträge:
    1.725
    Zustimmungen:
    0
    Kekse:
    195
    Erstellt: 15.11.04   #7
    waaah. als ob man stille nacht + Jingle Bells nicht auf einfachste weise raushören könnte :D ..
     
  8. AstroZombie

    AstroZombie Registrierter Benutzer

    Im Board seit:
    07.11.04
    Zuletzt hier:
    12.01.07
    Beiträge:
    124
    Ort:
    Offingen
    Zustimmungen:
    0
    Kekse:
    10
    Erstellt: 15.11.04   #8
    klingt so, stimmt aber glaub net, ich glaub des fängt mit h an... *grübel*
    naja, egal...

    so müssts gehen:
    Code:
    e-7-7-7--7-7-7--7-10------7----8-8-8-8-8-7-7-7-7------7----10----
    h-------------------8-10-------------------------10-10--10-------
    g----------------------------------------------------------------
    d----------------------------------------------------------------
    a----------------------------------------------------------------
    e----------------------------------------------------------------
    und so weiter
     
  9. Zahraa

    Zahraa Registrierter Benutzer

    Im Board seit:
    30.10.04
    Zuletzt hier:
    16.08.08
    Beiträge:
    15
    Ort:
    Bonn
    Zustimmungen:
    0
    Kekse:
    10
    Erstellt: 15.11.04   #9
    Das ist das was ich von „Pipi Langstrumpf“ kann.
    Das habe ich von einem Notenbild.
    Weiter könnte ich die Noten aber nicht lesen.
    Aber einfach auf Google gehen und bei Bildern mal nachschauen.

    e -----------------------------
    H ------3-0-1---------0------
    G -0-0--------2-----0--------
    D ---------------3-0-----0---
    A ----------------------------
    E -----------------------------

    e ---------------------------
    H ------3-0-1---------------
    G -0-0--------2-----0-------
    D ---------------3-0--------
    A ---------------------------
    E ---------------------------

    e -------------------------------
    H -----0------1--------------0--
    G ---0---0-2---2---0-----0----
    D -0--------------3---0-3------
    A ------------------------------
    E ------------------------------

    e -------------------------------
    H -----0------1----------------
    G ---0---0-2---2---0-----0----
    D -0--------------3---0-3-------
    A -------------------------------
    E -------------------------------
     
  10. SickSoul

    SickSoul HCA - Gitarren Ex-Moderator HCA

    Im Board seit:
    26.10.04
    Zuletzt hier:
    8.12.16
    Beiträge:
    6.400
    Ort:
    Irgendwo im Nirgendwo
    Zustimmungen:
    1.777
    Kekse:
    39.356
    Erstellt: 15.11.04   #10
    mal ganz ehrlich gesagt: ich glaube nicht, dass ventura nach den melodien sucht, von irgendwelchen liedern, sonder eher nach songs und zabs dazu...

    guck ma nach, ob du bei google rote rosen tabs findest. die toten hosen hamm ma ne weihnachts cd aufgenommen und das müsste se sein. ansonsten einfach mal googlen. (song + interpret + tab)
     
Die Seite wird geladen...

mapping