Welcher finger muss wohin?!

von nikron, 03.06.04.

  1. nikron

    nikron Gesperrter Benutzer

    Im Board seit:
    10.09.03
    Zuletzt hier:
    15.06.07
    Beiträge:
    71
    Ort:
    Erfurt
    Zustimmungen:
    0
    Kekse:
    10
    Erstellt: 03.06.04   #1
    Code:
    1:----------------|---------------|---------------------|---------------------|
    2:----------------|---------------|---------------------|---------------------|
    3:----------------|---------------|---------------------|---------------------|
    4:-5---5-7---5----|7---7-9---7----|10----10-12---10-----|12----14-12----------|
    5:---5---------5/-|--7---------7/-|---10------------10/-|---12-------15-14-12-|
    6:----------------|---------------|---------------------|---------------------|
    
    so also wenn ihr es nachspielt wisst ihr ja schnell was es ist jetzt meine frage welcher finger muss wohin.


    Code:
    1:----------------|
    2:----------------|
    3:----------------|
    4:-5---5-7---5----|
    5:---5---------5/-|
    6:----------------|
    
    also die erste 5 greife ich mit zeigefinger die zweite mit stinkefinger ;) und dann wieder zeigefinger soo aber jetzt die 7 sollte ich die mit dem ringfinger oder mit dem kleinen, für mich isses einfacher die mit dem kleinen zu greifen, bin auch anfänger..... so jetzt halt meine frage soll ich mir lieber angewönen mit dem ringfinger die zu greifen oder isses ok mit dem kleinen fingeR?

    mfg nikki

    ps: ich spiele das auf ner billig akustig villeicht sind deswegen auch die bünde bissel weit auseinander *g*
     
  2. Jim_Dandy

    Jim_Dandy Registrierter Benutzer

    Im Board seit:
    12.03.04
    Zuletzt hier:
    23.11.12
    Beiträge:
    283
    Zustimmungen:
    0
    Kekse:
    23
    Erstellt: 03.06.04   #2
    Prinzipiell ist es besser jedem Bund einen Finger zuzuweisen: den 5. Bund mit Zeige, den darüberliegenden mit Mittelfinger, den 7. Bund mit Ringfinger und den 8. Bund mit kleinen Finger.
    In deinem Fall wechselst du nur Zeige, Mittel und Ringfinger - das Griffmuster verschiebt sich ja bloß.

    --15-14--12--- In dem Fall greift der kleine , dann der Ring und dann der Zeigefinger.
     
  3. nikron

    nikron Threadersteller Gesperrter Benutzer

    Im Board seit:
    10.09.03
    Zuletzt hier:
    15.06.07
    Beiträge:
    71
    Ort:
    Erfurt
    Zustimmungen:
    0
    Kekse:
    10
    Erstellt: 03.06.04   #3
    ok danke na ja den schluss kann ich leider nicht greifen da ich bei meiner schnöden gitarre dann am ende des halses bin *g*
     
  4. iron maiden

    iron maiden Registrierter Benutzer

    Im Board seit:
    07.11.03
    Zuletzt hier:
    4.12.09
    Beiträge:
    507
    Zustimmungen:
    1
    Kekse:
    10
    Erstellt: 03.06.04   #4
    spiel doch einfach dann entweder alles oder zumindest die letzten beiden teile auch der g und d saite. unter dazu hat ja ne gitarre auch mehrere saiten. :)
     
  5. kleinershredder

    kleinershredder Registrierter Benutzer

    Im Board seit:
    23.02.04
    Zuletzt hier:
    20.06.11
    Beiträge:
    2.569
    Ort:
    Kierspe
    Zustimmungen:
    8
    Kekse:
    698
    Erstellt: 05.06.04   #5
    Zeigefinger immer in den Tiefsten Bund und dann den rest verteilen wie es die spannweite erlaubt. und die ersten Töne in deinem Beispiel würd ich einfach mit barre greifen.
     
  6. cyanite

    cyanite Registrierter Benutzer

    Im Board seit:
    12.05.04
    Zuletzt hier:
    23.08.14
    Beiträge:
    1.699
    Ort:
    Osnabrück
    Zustimmungen:
    0
    Kekse:
    1.772
    Erstellt: 06.06.04   #6
    Also wie schon gesagt, die 5en beide mit dem zeigefinger (barre), die 7 mit dem Ringfinger.

    Ich würd sagen dass es so etwas einfacher ist...

    Code:
    1:----------------|---------------|----------------|----------------|
    2:----------------|---------------|----------------|----------------|
    3:----------------|---------------|-5---5-7---5----|-7---9-7--------|
    4:-5---5-7---5----|7---7-9---7----|---5---------5/-|---7-----10-9-7-|
    5:---5---------5/-|--7---------7/-|----------------|----------------|
    6:----------------|---------------|----------------|----------------|
    
     
  7. 5150

    5150 Registrierter Benutzer

    Im Board seit:
    13.09.03
    Zuletzt hier:
    7.10.06
    Beiträge:
    99
    Zustimmungen:
    2
    Kekse:
    10
    Erstellt: 06.06.04   #7
    wenn du 2 noten hintereinander auf dem gleichen bund hast, greif barre bzw. "roll" deinen finger auf die nächste saite. dabei mutest du den vorherigen ton und greifst automatisch den nächsten... :)
     
  8. Belafarinrod666

    Belafarinrod666 Registrierter Benutzer

    Im Board seit:
    06.06.04
    Zuletzt hier:
    2.08.04
    Beiträge:
    12
    Ort:
    Graz
    Zustimmungen:
    0
    Kekse:
    10
    Erstellt: 06.06.04   #8

    YEAH ein klassiker von den ärzten :D
    zu späääät zu spät... ;)
     
Die Seite wird geladen...

mapping