Wer erkennt hier die Noten

von döge, 17.12.07.

  1. döge

    döge Registrierter Benutzer

    Im Board seit:
    16.12.07
    Zuletzt hier:
    19.10.08
    Beiträge:
    59
    Zustimmungen:
    0
    Kekse:
    10
    Erstellt: 17.12.07   #1
    Hallo ich habe hier einen kurzen Ausschnitt und würde gerne die Akkorde gewusst aus diesem Ausschnitt. Schön wäre es wenn einer Lust hätte es hier zu posten (in Tabulatur z.B.).

    vielen Dank schonmal

    -Song-Schnippsel-
     
  2. mannermoe

    mannermoe Registrierter Benutzer

    Im Board seit:
    06.09.06
    Zuletzt hier:
    4.12.16
    Beiträge:
    257
    Ort:
    Kiel
    Zustimmungen:
    2
    Kekse:
    738
    Erstellt: 17.12.07   #2
    Das gezupfte klingt sehr nach stairway to heaven.
    Mit den Akkorden/Tabs vom Intro solltest Du eigentlich ganz gut klarkommen, einfach mal rumprobieren
     
  3. döge

    döge Threadersteller Registrierter Benutzer

    Im Board seit:
    16.12.07
    Zuletzt hier:
    19.10.08
    Beiträge:
    59
    Zustimmungen:
    0
    Kekse:
    10
    Erstellt: 17.12.07   #3
    ne ich finde nicht das das sehr gleich klingt! Oder beziehst du dich auf eine bestimmte Stelle?
     
  4. mannermoe

    mannermoe Registrierter Benutzer

    Im Board seit:
    06.09.06
    Zuletzt hier:
    4.12.16
    Beiträge:
    257
    Ort:
    Kiel
    Zustimmungen:
    2
    Kekse:
    738
    Erstellt: 18.12.07   #4
    das gezupfte jedenfalls, die Töne sind meiner Meinung nach gleich, 2 oder 3 sind anders bzw. zusätzlich mit drin und evtl. ´ne in ´ner anderen Reihenfolge, aber sonst sollte es eigentlich gut passen.
    Ich versuch´s nochmal genau rauszuhören und zu tabben, kann aber ´n bischen dauern wegen Zeitmangel
     
  5. döge

    döge Threadersteller Registrierter Benutzer

    Im Board seit:
    16.12.07
    Zuletzt hier:
    19.10.08
    Beiträge:
    59
    Zustimmungen:
    0
    Kekse:
    10
    Erstellt: 18.12.07   #5
    super danke
     
  6. mannermoe

    mannermoe Registrierter Benutzer

    Im Board seit:
    06.09.06
    Zuletzt hier:
    4.12.16
    Beiträge:
    257
    Ort:
    Kiel
    Zustimmungen:
    2
    Kekse:
    738
    Erstellt: 18.12.07   #6
    hab´s nochmal kurz direkt verglichen, es ist 1/2 Ton tiefer als stairway
     
  7. hoss

    hoss HCA Gibson, Fender, vintage HCA

    Im Board seit:
    03.08.04
    Zuletzt hier:
    3.12.16
    Beiträge:
    18.700
    Zustimmungen:
    6.210
    Kekse:
    90.323
    Erstellt: 18.12.07   #7
    Was ich auf die schnelle so höre (ist allerdings einiges an Hall, etc. drauf)

    Code:
    E||-----------------5-------||-----------------------------|
    B||---9-----7-------7-------||---------------10--8---------|
    G||*--9-----7-------7------*||---------7--9---------9--7\--|
    D||*--9-----7--------------*||--7h--9----------------------|
    A||-------------------------||-----------------------------|
    E||-------------------------||-----------------------------|
    
    
    --------------10---------|-----------------------------|-------------9--------||
    -------8--10-------------|---------------10--8---------|------------11--------||
    -\5----------------------|---------7--9---------9--11--|--(11)------11--------||
    -------------------------|--7h--9----------------------|----------------------||
    -------------------------|-----------------------------|----------------------||
    -------------------------|-----------------------------|----------------------||
    
     
  8. Sele

    Sele Registrierter Benutzer

    Im Board seit:
    03.08.04
    Zuletzt hier:
    4.12.16
    Beiträge:
    7.147
    Ort:
    Schleswig-Holstein
    Zustimmungen:
    264
    Kekse:
    26.652
    Erstellt: 18.12.07   #8
    Als Anhaltspunkt kannst du das mal nehmen. Sorry das ich es dir nicht ganz 1:1 taben konnte, aber meine Ohren sind heute dicht - kennt ja jeder, das man so nen druck auf den Ohren hat vom vielen Lärm.

    Code:
    E||------------------7-------||------------------------------|
    B||---9-----11-------7-------||---------------11p9-----------|
    G||*--9-----11-------8------*||----------9---------9---------|
    D||*-----------------9------*||--------9---9---------9-------|
    A||---7-----9----------------||-----11-----------------------|
    E||--------------------------||------------------------------|
    
    (runtersliden)
    -------------------------|------------------------------|--------------------||
    ---------------12--------|---------------11p9------9----|-----------9--------||
    --------11---------------|----------9---------9---------|-----------9--------||
    -----11----11------------|--------9---9---------9-------|-----------9--------||
    --13---------------------|-----11-----------------------|--------------------||
    -------------------------|------------------------------|--------------------||
    Viel Erfolg beim "fein"raushören :)!

    Grüße
     
  9. döge

    döge Threadersteller Registrierter Benutzer

    Im Board seit:
    16.12.07
    Zuletzt hier:
    19.10.08
    Beiträge:
    59
    Zustimmungen:
    0
    Kekse:
    10
    Erstellt: 18.12.07   #9
    TAKT 8/4
    1 2 3 4 8 6 7 8 1 2 3 4 5 6 7 8

    T E|------4-6------|------7--------|
    A H|----4-----4----|----5----------|
    B G|--4---------6--|--8------------|
    D|4-------------6|---------------|
    A|---------------|---------------|
    E|---------------|---------------|

    Die 8 [D-Saite,6.Bund]im Takt eins ist die vorgezogene 1 aus takt 2. Aber das ist relativ unwichtig.
     
  10. mannermoe

    mannermoe Registrierter Benutzer

    Im Board seit:
    06.09.06
    Zuletzt hier:
    4.12.16
    Beiträge:
    257
    Ort:
    Kiel
    Zustimmungen:
    2
    Kekse:
    738
    Erstellt: 18.12.07   #10
    So, was ich bis jetzt bei dem Gezupften habe sieht ungefähr so aus:

    E|--------4--6------- ? -----7--------4-6-----4--
    H|------4------4---- ? ---4--------4-----4------
    G|----4----------4-- ? -4--------4---------4----
    D|--6--------------- ? --------6-----------------
    A|------------------- ? ---------------------------
    E|------------------- ? --------------------------

    Wie unschwer zu erkennen fehlt mir noch der slide, da hab´ich noch nicht die richtigen Töne gefunden

    EDIT: naja, und bei den Beiden im 4. Bund nach dem slide bin ich mir auch noch nicht so ganz sicher

    nochmal EDIT (die kann aber auch nerven :D): hört sich eher ungefähr so an:

    E|--------4--6--------------7--------4-6-----4--
    H|------4------4----------4--------4-----4------
    G|----4----------6------4--------4---------6----
    D|------------------4/6--------------------------
    A|------------------------------------------------
    E|--4--------------------------4-----------------

    (bei den Beiden im 4. Bund nach dem slide bin ich mir jetzt eigentlich doch sicher, hab auch nur ´ne Akustik hier, die E-Gitarre is im Moment in Umbauphase und wenn der "Sound" bei testen ziemlich unterschiedlich ist tue ich mich da manchmal schwer, bin ja nu auch kein Profi)
     
Die Seite wird geladen...

mapping