when i come around

von CastorTroy, 15.08.04.

  1. CastorTroy

    CastorTroy Registrierter Benutzer

    Im Board seit:
    21.10.03
    Zuletzt hier:
    8.08.07
    Beiträge:
    376
    Ort:
    Nähe Mainz
    Zustimmungen:
    0
    Kekse:
    17
    Erstellt: 15.08.04   #1
    kann jemand mal nen link oder richtige tabs von
    green day - when i come around posten...???

    bei mir stimmen solo und rest nich überein...
    wie is das original-tuning?
     
  2. !nsane

    !nsane Gesperrter Benutzer

    Im Board seit:
    10.09.03
    Zuletzt hier:
    3.04.12
    Beiträge:
    233
    Ort:
    Heilbronn
    Zustimmungen:
    0
    Kekse:
    79
    Erstellt: 15.08.04   #2
    das original tuning is Eb, also nen halbton tiefer


    solo is ungefähr so:


    Code:
    Eb---------3--------5----------3-----5-------3----5-5-5-3~-|
    Bb-----------3----3---3-----3----3-----3-------3-----------|
    Gb-------------0~--------0---------0------0~---------------|
    Db---------------------------------------------------------|
    Ab---------------------------------------------------------|
    Eb---------------------------------------------------------|
      
    Eb--3-3--/12-12-12-12~~~-----|
    Bb------------------------------|
    Gb------------------------------|
    Db------------------------------|
    Ab------------------------------|
    Eb------------------------17/---|
    
     
  3. CastorTroy

    CastorTroy Threadersteller Registrierter Benutzer

    Im Board seit:
    21.10.03
    Zuletzt hier:
    8.08.07
    Beiträge:
    376
    Ort:
    Nähe Mainz
    Zustimmungen:
    0
    Kekse:
    17
    Erstellt: 17.08.04   #3
    sind aber dann folgende verse-chords:

    eb------------------------
    Hb------------------------
    Gb------7---9-----5-------
    Db--5---7---9-----5-------
    Ab--5---5---7-----3-------
    Eb--3----------------------

    Chorus:
    ---------------------
    ---------------------
    ---------5-----------
    ----7----5----------
    ----7----3----------
    ----5----------------

    richtig?
     
  4. !nsane

    !nsane Gesperrter Benutzer

    Im Board seit:
    10.09.03
    Zuletzt hier:
    3.04.12
    Beiträge:
    233
    Ort:
    Heilbronn
    Zustimmungen:
    0
    Kekse:
    79
    Erstellt: 17.08.04   #4
    jup, is richtig
     
  5. CastorTroy

    CastorTroy Threadersteller Registrierter Benutzer

    Im Board seit:
    21.10.03
    Zuletzt hier:
    8.08.07
    Beiträge:
    376
    Ort:
    Nähe Mainz
    Zustimmungen:
    0
    Kekse:
    17
    Erstellt: 17.08.04   #5
    thx for help...dann passt's
     
  6. nike_esp

    nike_esp Registrierter Benutzer

    Im Board seit:
    30.04.04
    Zuletzt hier:
    29.04.13
    Beiträge:
    3.054
    Zustimmungen:
    1
    Kekse:
    414
    Erstellt: 17.08.04   #6
    ist es nicht noch nen halbton tiefer ? ... bei standard tuning.

    anstatt

    -----5--7--9--
    --5--5--7--9--
    --5--3--5--7--
    --3------------

    so:

    -----4---6---8
    --4--4---6---8
    --4--2---4---6
    --2-----------

    Chorus .... (so spielen wir es in der Band ... müsstest den Wechsel dan raushören)

    ----6------------8-9---------9-8-6--------------8-9
    ----6------------8-9---------9-8-6--------------8-9
    ----4´´´´´´´----6-7´´´´-----7-6-4´´´´´´´´-----6-7
     
  7. Sir Taki

    Sir Taki Registrierter Benutzer

    Im Board seit:
    06.03.04
    Zuletzt hier:
    1.12.16
    Beiträge:
    534
    Ort:
    Grim and frostbitten Northern Black Forest bzw. We
    Zustimmungen:
    0
    Kekse:
    425
    Erstellt: 17.08.04   #7
    Also zu "When I Come around" hab sogar ICH es geschafft, die Akkorde selbst rauszuhören :o

    Achja damit auch was zu Topic dabei ist:
    Unter "tabs und Spieltechniken" ist ein Sticky mit 24345646578 links zu Tabseiten :great:
     
  8. CastorTroy

    CastorTroy Threadersteller Registrierter Benutzer

    Im Board seit:
    21.10.03
    Zuletzt hier:
    8.08.07
    Beiträge:
    376
    Ort:
    Nähe Mainz
    Zustimmungen:
    0
    Kekse:
    17
    Erstellt: 17.08.04   #8
    ja bei standard tuning komsmt du somit auf die originaltöne
    aber wenn du auf dem halbtonschritt-tiefer-tuning spielt (wie's ja auch im original gespielt wird) musst du die akks spielen, die ich gepostet hab, um auf die originaltöne zu kommen

    das problem is eben das solo
    da kommt eben paarmal die 3 saite leer vor...das is dann auf dem green day-tuning nen fis
    und da kann man im standard tuning schlecht spielen!
    was man machen kann, is, dass man alles einen halbtonschritt höher als im orignal spielt...
     
Die Seite wird geladen...

mapping