Whiskey in the Jahr was ist richtig?

von SpLiNtEr, 23.06.04.

  1. SpLiNtEr

    SpLiNtEr Registrierter Benutzer

    Im Board seit:
    16.05.04
    Zuletzt hier:
    14.11.05
    Beiträge:
    1.225
    Zustimmungen:
    0
    Kekse:
    10
    Erstellt: 23.06.04   #1
    wie gehts jetzt so

    part 1
    -----------------------------------------------------------
    -----------------------------------------------------------
    -7-7-9-11-12-9-11-7-9-12----7-7-9-11-12-9-11-7-9-12-/14\12-
    -----------------------------------------------------------
    -----------------------------------------------------------
    -----------------------------------------------------------

    part 2
    -----------------------------------------------
    -----------------------------------------------
    -7-7-9-11-12-9-11-7-9-12~~---------7-----------
    ----------------------------5-5-5-7-5-7-5-7/9-5
    -----------------------------------------------
    -----------------------------------------------

    oder so

    |----------------------------------------|
    |----------------------------------------|
    |--------------10-------------10~--------|
    |----10-10-12-----12-14-10-12------------|
    |----------------------------------------|
    |----------------------------------------|


    |----------------------------------------------------|
    |----------------------------------------------------|
    |--------------10--------------10--10/12/10~---------|
    |----10-10-12------12-14-10-12-----------------------|
    |----------------------------------------------------|
    |----------------------------------------------------|


    |--------------------------------------|
    |--------------------------------------|
    |--------------10--------------10~-----|
    |----10-10-12-----12-14-10-12----------|
    |--------------------------------------|
    |--------------------------------------|


    |-------------------------------------------------------|
    |-------------------------------------------------------|
    |-------------------------------------------------------|
    |----------------10-------------------------------------|
    |-----8--8--10-----8--10---8--10/12--8~-----------------|
    |-------------------------------------------------------|
     
  2. LuckLive

    LuckLive Registrierter Benutzer

    Im Board seit:
    19.08.03
    Zuletzt hier:
    10.09.12
    Beiträge:
    191
    Ort:
    Halle
    Zustimmungen:
    0
    Kekse:
    10
    Erstellt: 23.06.04   #2
    Ich kenn nur das:

    |-------------------------------|----|---------------------------|
    |-------------8-------------8---|----|-----------3---------------|
    |--7-7-7h9h11---9--11--7--9----:|-x3-|-0-0-0h2h4---0-2-0-(2)/4-0-|
    |-------------------------------|----|---------------------------|
    |-------------------------------|----|---------------------------|
    |-------------------------------|----|---------------------------|
     
  3. nike_esp

    nike_esp Registrierter Benutzer

    Im Board seit:
    30.04.04
    Zuletzt hier:
    29.04.13
    Beiträge:
    3.054
    Zustimmungen:
    1
    Kekse:
    414
    Erstellt: 23.06.04   #3
    Perfekt, wäre mein nächster Thread geworden ...

    Wo kann ich 100% richtige Tabs zu Whisky in the Jar finden ? (Metallica) :)
     
  4. LuckLive

    LuckLive Registrierter Benutzer

    Im Board seit:
    19.08.03
    Zuletzt hier:
    10.09.12
    Beiträge:
    191
    Ort:
    Halle
    Zustimmungen:
    0
    Kekse:
    10
    Erstellt: 23.06.04   #4
    Guckst Du hier!
     
  5. nike_esp

    nike_esp Registrierter Benutzer

    Im Board seit:
    30.04.04
    Zuletzt hier:
    29.04.13
    Beiträge:
    3.054
    Zustimmungen:
    1
    Kekse:
    414
    Erstellt: 23.06.04   #5
    wie öffne ich die :confused:
     
  6. LuckLive

    LuckLive Registrierter Benutzer

    Im Board seit:
    19.08.03
    Zuletzt hier:
    10.09.12
    Beiträge:
    191
    Ort:
    Halle
    Zustimmungen:
    0
    Kekse:
    10
    Erstellt: 23.06.04   #6
    Mit guitar-pro!
    Hast Du noch nicht?
    Guckst Du hier!
     
  7. nike_esp

    nike_esp Registrierter Benutzer

    Im Board seit:
    30.04.04
    Zuletzt hier:
    29.04.13
    Beiträge:
    3.054
    Zustimmungen:
    1
    Kekse:
    414
    Erstellt: 23.06.04   #7
    danke, ... aber kann ich da die Sicht verändern ? .weil ich seh immer nur eine Zeile :confused: . Drucken geht leider auch nicht.

    Kann ich die richtigen Tabs woanders auch finden ? Welche die ich ausdrucken kann ? ...
     
  8. LuckLive

    LuckLive Registrierter Benutzer

    Im Board seit:
    19.08.03
    Zuletzt hier:
    10.09.12
    Beiträge:
    191
    Ort:
    Halle
    Zustimmungen:
    0
    Kekse:
    10
    Erstellt: 23.06.04   #8
    Hast schon mal gegoogelt?
     
  9. LuckLive

    LuckLive Registrierter Benutzer

    Im Board seit:
    19.08.03
    Zuletzt hier:
    10.09.12
    Beiträge:
    191
    Ort:
    Halle
    Zustimmungen:
    0
    Kekse:
    10
  10. nike_esp

    nike_esp Registrierter Benutzer

    Im Board seit:
    30.04.04
    Zuletzt hier:
    29.04.13
    Beiträge:
    3.054
    Zustimmungen:
    1
    Kekse:
    414
    Erstellt: 23.06.04   #10
  11. LuckLive

    LuckLive Registrierter Benutzer

    Im Board seit:
    19.08.03
    Zuletzt hier:
    10.09.12
    Beiträge:
    191
    Ort:
    Halle
    Zustimmungen:
    0
    Kekse:
    10
    Erstellt: 23.06.04   #11
    Ja gut, 100%ige Tabs wirst Du wohl von keinem Song bekommen. Es sei denn, es existiert ein Original Songbook der jeweiligen Band, und das gibts dann nur im Laden für teures Geld. :(

    Aber fummle mal weiter mit guitarpro rum! Dafür gibts zig Tausende Tabs!
     
  12. nike_esp

    nike_esp Registrierter Benutzer

    Im Board seit:
    30.04.04
    Zuletzt hier:
    29.04.13
    Beiträge:
    3.054
    Zustimmungen:
    1
    Kekse:
    414
    Erstellt: 23.06.04   #12
    hmm ok, ... weisst du wie ich die Ansicht der Tabs ändern kann bei Guitar Pro ?
     
  13. LuckLive

    LuckLive Registrierter Benutzer

    Im Board seit:
    19.08.03
    Zuletzt hier:
    10.09.12
    Beiträge:
    191
    Ort:
    Halle
    Zustimmungen:
    0
    Kekse:
    10
    Erstellt: 23.06.04   #13
    Stell mal die Sprache auf Deutsch und hangele Dich Durch die Menüs.
    Unter 'Ansicht' kannst Du Mehr- oder Ein-Spur Sicht einstellen. Die Noten-Zeile kannst Du auch ausschalten.
    Du kannst auch jede einzelne Spur exportieren...
     
  14. nike_esp

    nike_esp Registrierter Benutzer

    Im Board seit:
    30.04.04
    Zuletzt hier:
    29.04.13
    Beiträge:
    3.054
    Zustimmungen:
    1
    Kekse:
    414
    Erstellt: 23.06.04   #14
    nee lieber english. Danke für die hilfe !
     
  15. Little_Raven

    Little_Raven Registrierter Benutzer

    Im Board seit:
    20.08.03
    Zuletzt hier:
    28.04.10
    Beiträge:
    1.142
    Zustimmungen:
    2
    Kekse:
    1.168
    Erstellt: 23.06.04   #15
    Ich hab' das Lied war schon lange nicht mehr gehört, aber ich glaube, dass wenn auch nicht im ganzen Lied die Leadgitarre aus 2 Stimmen besteht.
    Eine spielt ja CDEF... und die andere vielleicht Quarten wenn es denn so ist.
    Für so einen Fall sollte das runterladen von Liedern echt legalisiert werden :rolleyes:
     
  16. nike_esp

    nike_esp Registrierter Benutzer

    Im Board seit:
    30.04.04
    Zuletzt hier:
    29.04.13
    Beiträge:
    3.054
    Zustimmungen:
    1
    Kekse:
    414
    Erstellt: 23.06.04   #16
    ist es nicht legal für eigenen Gebrauch ? ... glaube hier in Holland schon :confused:
     
  17. Little_Raven

    Little_Raven Registrierter Benutzer

    Im Board seit:
    20.08.03
    Zuletzt hier:
    28.04.10
    Beiträge:
    1.142
    Zustimmungen:
    2
    Kekse:
    1.168
    Erstellt: 23.06.04   #17
    Es ist nicht direkt verboten!
    Strafen gibt es zur Zeit nur für das verbreiten von Raubkopien in Deutschland.
    Amerikanische Plattenfirmen haben aber das Recht uns zu verwarnen und später auch anzuzeigen.
    Fällt aber eh nur bei großen Netzen auf.


    Mein Beitrag steht allerdings über diesem zitierten Satz!
    Muss ja nicht alles hier wegen einem Satz disskutiert werden
     
  18. ranti

    ranti Registrierter Benutzer

    Im Board seit:
    11.03.04
    Zuletzt hier:
    2.03.13
    Beiträge:
    382
    Ort:
    Kreis Kleve
    Zustimmungen:
    0
    Kekse:
    10
    Erstellt: 23.06.04   #18
    @Nike_esp

    Wenn du nur nach Tabs spielst mach mal die Noten weg.Oben rechts irgendwo :rolleyes:
    Auf Leertaste musste drücken zum abspielen ;)
     
  19. Lupus

    Lupus Registrierter Benutzer

    Im Board seit:
    23.04.04
    Zuletzt hier:
    3.07.13
    Beiträge:
    665
    Ort:
    Nürnberg
    Zustimmungen:
    1
    Kekse:
    108
    Erstellt: 26.06.04   #19
    spiele das auch so wie LuckLive. denke mal das ist auch richtig so.
    hört euch mal die "originalversion" von thin lizzy an, da ists leichter rauszuhören.
    kirk spielt die zweistimmigen teile so weit ich weiß mit harmonizer/pitch shifter. bei thin lizzy weiß ichs nicht wie ´bell das gespielt hat, kenn leider keine live version.

    gruß,
    lupus
     
  20. sgler

    sgler Registrierter Benutzer

    Im Board seit:
    19.02.04
    Zuletzt hier:
    2.06.05
    Beiträge:
    278
    Zustimmungen:
    1
    Kekse:
    12
    Erstellt: 27.06.04   #20
Die Seite wird geladen...

mapping