Wie heißt dieser Song?-Please correct me if i´m wrong.

von chewbacca87, 13.04.07.

Status des Themas:
Es sind keine weiteren Antworten möglich.
  1. chewbacca87

    chewbacca87 Registrierter Benutzer

    Im Board seit:
    07.11.06
    Zuletzt hier:
    10.03.09
    Beiträge:
    73
    Ort:
    Gronau
    Zustimmungen:
    0
    Kekse:
    31
    Erstellt: 13.04.07   #1
    Hy, ich habe vor einiger Zeit einen Jazz Song beigebracht bekommen, der ziemlich geil grooved ich, mich aber leider nicht mehr richtig an ihn erinnern kann. Der Song basiert auf einen Klavier Stück und ist eigentlich relativ einfach zu spielen einzige Schwierigkeiten sind hierbei Fingerpicking und Barre Akkorde, aber seht selbst:


    e ---------------------------------
    H -----1--3---------4-----3--1---
    G -----1--3---------3-----3--1--- 2.mal
    D -----1--3---------5-----3--1---
    A --------------3------------------
    E 1--------------------------------



    e --------------------7----6---4-----
    H -----4---6---------7----6---4-----
    G -----4---6---------8----6---4----- 2.mal
    D -----4---6----6--------------------
    A 4-----------------------------------
    E ------------------------------------


    das sind die Bruchstücke an die ich noch in etwa erinnern kann, ich weiß aber dass der Song so nicht zu 100% korrekt ist. Also wenn jemand weiß wie der Song richtig gespielt wird, den Namen weiß oder im besten Falle Tabs dazu hat währe ich sehr dankbar.
     
  2. Hans_3

    Hans_3 High Competence Award HCA

    Im Board seit:
    09.11.03
    Beiträge:
    16.149
    Zustimmungen:
    1.124
    Kekse:
    49.622
    Erstellt: 13.04.07   #2
  3. chewbacca87

    chewbacca87 Threadersteller Registrierter Benutzer

    Im Board seit:
    07.11.06
    Zuletzt hier:
    10.03.09
    Beiträge:
    73
    Ort:
    Gronau
    Zustimmungen:
    0
    Kekse:
    31
    Erstellt: 13.04.07   #3
    yeah, danke das kommt dem Song schon ziemlich nahe.
     
Die Seite wird geladen...

Status des Themas:
Es sind keine weiteren Antworten möglich.
mapping