wie soll ich das spielen?

von TrinOO, 07.05.04.

  1. TrinOO

    TrinOO Registrierter Benutzer

    Im Board seit:
    02.09.03
    Zuletzt hier:
    29.11.05
    Beiträge:
    69
    Zustimmungen:
    0
    Kekse:
    10
    Erstellt: 07.05.04   #1
    Metallica - Nothing else matters

    Em D C Em D C Em
    So close no matter how far couln't be much more from the heart
    Em D C G D Em
    for ever trusting who you are and nothing else matters

    Em D C Em D C
    Never opened myself this way live desires we live it our way
    Em D C G D Em
    all this words I don't just say and nothing else matters

    Em D C Em D C
    Trust I seek and T find in you every day for us something new
    Em D C G D Em C A
    open mind for a differend view and nothing else matters

    D C A D C A
    Never care for what they do, never care for what they know
    D Em
    but T know

    Em D C Em D C
    So close no matter how far couln't be much more from the heart
    Em D C G D Em C A
    for ever trusting who you are and nothing else matters

    D C A D C A
    Never care for what they do, never care for what they know
    D Em
    but I know

    Em D C Em D C
    Never opened myself this way live desires we live it our way
    Em D C G D Em
    all this words T don't just say and nothing else matters

    Em D C Em D C
    Trust T seek and T find in you every day for us something new
    Em D C G D Em C A
    open mind for a differend view and nothing else matters

    D C A D C A
    never care for what they say, never care for games they play,
    D C A D C A D
    never care for what they do, never care for what they know, yeah

    - solo
    Em D C Em D C
    So close no matter how far couldn't be much more from the heart
    Em D C G D Em
    for ever trusting who you are and nothing else matters



    -->das mal zum Chordspiel von Nothing Else Matters, nur wann muss ich da umgreifen?
    Wäre nett, wenn die Griffe über dem Wort wären bei dem ich Umgreifen muss oder so!
    kann mir das mal wer so umschreiben, dass ich weiß wann ich da wechseln muss? weil ich hab keinen schimmer wann :mad:
    Oder is das ganze n picking mit ner speziellen Technik oder so?
    Und was is mim Rhythmus? soll ich das im Takt vom Original spielen oder wie?
    da bin ich gespannt wer das vernünftig erklären kann :)

    mal sehen,
    Daniel
     
  2. redruM

    redruM Registrierter Benutzer

    Im Board seit:
    21.02.04
    Beiträge:
    379
    Zustimmungen:
    0
    Kekse:
    90
    Erstellt: 07.05.04   #2
    mein tipp: geh auf www.powertabs.net und besorg dir den PTB Editor (da bei links, official powertab site...)

    da gibs die tabs ordentlich mit takten und noten usw..

    cu
     
  3. Lupus

    Lupus Registrierter Benutzer

    Im Board seit:
    23.04.04
    Zuletzt hier:
    3.07.13
    Beiträge:
    665
    Ort:
    Nürnberg
    Zustimmungen:
    1
    Kekse:
    108
    Erstellt: 07.05.04   #3
    ich würde dir empfehlen, einfach mal versuchen das zu hören :D mit ein bißchen übung geht das ganz einfach. zumindest solnag die chords noch so einfach sind ;) das problem, daß die akkorde nicht immer korrekt über den silben stehen wirst du im internet öfters finden. meist gibts zwar irgendwo ein file das (ungefähr) passt, aber bis man das findet...
    sing am besten das lied und spiel den akkord immer nur mit einem downstoke, dann hörst du gut ob der akkord passt oder nicht. wenn dus nicht exakt singen kannst, dann versuchs zu der cd. ist imo bißchen schwieriger wegen der anderen instrumente.


    falls du gar nicht drauf kommst:
    em D C
    so close no matter how far
    em D C
    couldn't be much more from the heart
    em D C
    forever trusting who we are
    G D em
    and nothing else matters


    usw....
    dann:
    D (D4 D D9 D) C A D

    usw.... (die akkorde in klammern musst nicht unbedingt spielen)

    gezupft schauts dann ungefähr so aus (die notenwerte musst du da selber raushören):

    E-------------3-----0-----|-2-----3-----0-----------|
    B---------0-----------0---|---------3-------3-------|
    G-----0-----------0-----0-|-----------0-------0-----|
    D-------------------------|-0-----------------------|
    A-------------------------|-------------3-----------|
    E-0-----------------------|---------------------3-2-|

    E-------------3-----0-----|-2-----------------------|
    B---------0-----------0---|-------3-----3-----------|
    G-----0-----------0-----0-|---------2p0-----0------|
    D-------------------------|-0--0--------------------|
    A-------------------------|-------------3-----------|
    E-0-----------------------|---------------------3-2-|

    E-------------3-----0-----|-2-----3-----3-----------|
    B---------0-----------0---|---------3-------3-------|
    G-----0-----------0-----0-|-----------0---------0---|
    D-------------------------|-0--0--------------------|
    A-------------------------|-------------3-----------|
    E-0-----------------------|-------------------------|

    E---------3---2-------2---|-0-----0-----|----------0---------|
    B---------3---0---------0-|-----0---0---|-------0----0-------|
    G-----0-------2-----------|---0-------0-|----0---------------|
    D-------------------------|-------------|---------------------|
    A-------------2---2-------|-------------|---------------------|
    E-3-----------------------|-0-----------|-0---------------3-2-|

    hoffe ich konnte dir weiterhelfen.

    gruß,
    lupus
     
  4. Lupus

    Lupus Registrierter Benutzer

    Im Board seit:
    23.04.04
    Zuletzt hier:
    3.07.13
    Beiträge:
    665
    Ort:
    Nürnberg
    Zustimmungen:
    1
    Kekse:
    108
    Erstellt: 07.05.04   #4
    :mad: und wieso schiebts mir dann den text wieder zusammen wenn ichs poste :confused:
    jetzt schauts so aus wie am anfang.
    also versuch ichs mal so:

    em-------------------D---C
    --so close no matter how far
    em----------------------D-------- C
    --couldn't be much more from the heart
    em----------------D-------C
    --forever trusting who we are
    G-----D-------------em
    --and nothing else matters

    .........



    D------(D4----D--D9----D)--C--A----D
    --never cared for games and play

    wie gesagt, die in () müssen nicht sein, klingt aber schöner so.

    für den rest mal selber rausfinden ;) . ist das gleiche schema

    gruß,
    lupus
     
  5. Hans_3

    Hans_3 High Competence Award HCA

    Im Board seit:
    09.11.03
    Beiträge:
    16.150
    Zustimmungen:
    1.124
    Kekse:
    49.622
    Erstellt: 08.05.04   #5
    @tinoo: Thema 1x einstellen sollte reichen. Sonst sieht man hier bald alles doppelt. ;)
     
  6. JOey_jordison

    JOey_jordison Registrierter Benutzer

    Im Board seit:
    20.02.04
    Zuletzt hier:
    5.05.10
    Beiträge:
    145
    Ort:
    München
    Zustimmungen:
    0
    Kekse:
    10
    Erstellt: 24.05.04   #6
    ausserdem spielt mann den letzten teil so em;d;c;g;h7
    und nicht so em,d,c,g,d
     
Die Seite wird geladen...

mapping