Wie spielt ihr smoke on the water?

von kurtcobain, 15.11.04.

  1. kurtcobain

    kurtcobain Registrierter Benutzer

    Im Board seit:
    05.09.04
    Zuletzt hier:
    23.12.04
    Beiträge:
    7
    Ort:
    Burghausen (Bayern)
    Zustimmungen:
    0
    Kekse:
    10
    Erstellt: 15.11.04   #1
    Wie spielt ihr eigentlich smoke on the water?

    so:
    --------------------------------------------
    --------------------------------------------
    ------0-3-5-0-3-6u5-0-3-5-3-0-0-----------
    ------0-3-5-0-3-6u5-0-3-5-3-0-0-----------
    --------------------------------------------
    --------------------------------------------
    oder anders?

    rock on! :rock:
     
  2. Phili

    Phili Mod Emeritus Ex-Moderator

    Im Board seit:
    26.12.03
    Zuletzt hier:
    6.05.12
    Beiträge:
    4.518
    Ort:
    Sachsen-Anhalt
    Zustimmungen:
    7
    Kekse:
    1.938
    Erstellt: 15.11.04   #2
    Ich spiele es auch genauso :great:
    Nein halt, am Ende spiele ich nicht zweimal die Quarte auf D, sondern nur einmal.
     
  3. KlausP

    KlausP HCA Gitarre HCA

    Im Board seit:
    25.01.04
    Zuletzt hier:
    14.07.11
    Beiträge:
    6.293
    Ort:
    Franken
    Zustimmungen:
    10
    Kekse:
    13.246
  4. Megarob

    Megarob Gesperrter Benutzer

    Im Board seit:
    02.08.04
    Zuletzt hier:
    2.11.05
    Beiträge:
    236
    Zustimmungen:
    0
    Kekse:
    10
    Erstellt: 15.11.04   #4
    E--------------------------
    B-------------------------
    G--------------------------
    D--2--5--7---2--5--8-/-7---2-5-7-5-2-----
    A--0--3--5---0--3--6-/-5---0-3-5-3-0---#
    E----------------
     
  5. Hans_3

    Hans_3 High Competence Award HCA

    Im Board seit:
    09.11.03
    Beiträge:
    16.142
    Zustimmungen:
    1.119
    Kekse:
    49.592
    Erstellt: 15.11.04   #5
    Bitte folgt dem Link von Klaus, zu dem Thema gibt es bereits einen sehr ergiebigen und interessanten Thread.
     
  6. Schwammkopf

    Schwammkopf Registrierter Benutzer

    Im Board seit:
    19.08.03
    Zuletzt hier:
    30.11.16
    Beiträge:
    1.970
    Ort:
    Eitorf
    Zustimmungen:
    0
    Kekse:
    149
    Erstellt: 15.11.04   #6
    am besten gar nich ; )

    aber ich spiel den ersten so

    d-5
    a-5
     
  7. VisionaryBeast

    VisionaryBeast Registrierter Benutzer

    Im Board seit:
    13.09.04
    Zuletzt hier:
    22.07.09
    Beiträge:
    1.677
    Zustimmungen:
    1
    Kekse:
    540
    Erstellt: 16.11.04   #7
    entweder mach ichs

    ----------
    ----------
    ----------
    -----------
    ----7-10-12
    ----5-8-10

    ect also mit powerchords

    oder gern mal ganz clean mit

    --------
    --------
    --------
    --------
    -----3--5-----3-6-5
    ---5--------5---

    geht flüssig und zackig von den fingern
     
  8. [E]vil

    [E]vil Registrierter Benutzer

    Im Board seit:
    16.11.03
    Beiträge:
    11.438
    Ort:
    Odenwald
    Zustimmungen:
    663
    Kekse:
    14.423
    Erstellt: 16.11.04   #8
    wers ganz brachial mag kanns auch mit powerchords von gaaaanz unten machen das klingt richtich böse dann :)
     
  9. Streen

    Streen Registrierter Benutzer

    Im Board seit:
    07.12.03
    Zuletzt hier:
    23.07.10
    Beiträge:
    235
    Ort:
    Graz (AUT)
    Zustimmungen:
    0
    Kekse:
    24
    Erstellt: 16.11.04   #9
    Also ich spiel das so...

    -----------------------------
    -----------------------------
    0-3-5--0-3-6-5--0-3-5--3-0
    5-3-5--5-3-6-5--5-3-5--3-5
    5-1-3--5-1-4-3--5-1-3--1-5
    3-x-x--3-x-x-x--3-x-x--x-3

    Klingt find ich auch ganz sauber :)

    mfg
     
  10. SickSoul

    SickSoul HCA - Gitarren Ex-Moderator HCA

    Im Board seit:
    26.10.04
    Zuletzt hier:
    4.12.16
    Beiträge:
    6.400
    Ort:
    Irgendwo im Nirgendwo
    Zustimmungen:
    1.777
    Kekse:
    39.356
    Erstellt: 16.11.04   #10
    von soulfly gibt's n cover zu dem lied. die spielen's mit "etwas" mehr zerre als das original und fangen auf e an. is ganz witzig...
     
  11. ratking

    ratking Mod Emeritus Ex-Moderator HFU

    Im Board seit:
    26.09.03
    Zuletzt hier:
    1.12.16
    Beiträge:
    5.053
    Ort:
    München
    Zustimmungen:
    843
    Kekse:
    38.178
    Erstellt: 17.11.04   #11
    Ich spiel's auch so:

    --------------------------------------------
    --------------------------------------------
    ------0-3-5-0-3-6u5-0-3-5-3-0-0-----------
    ------0-3-5-0-3-6u5-0-3-5-3-0-0-----------
    --------------------------------------------
    --------------------------------------------

    Aber beim zweiten mal über drei Saiten, also auch die h-Saite noch dazu ...
     
  12. elconlagibson

    elconlagibson Gesperrter Benutzer

    Im Board seit:
    27.04.04
    Zuletzt hier:
    15.02.05
    Beiträge:
    1.108
    Zustimmungen:
    0
    Kekse:
    10
    Erstellt: 17.11.04   #12
    so kenn ichs auch
     
  13. Fender

    Fender Registrierter Benutzer

    Im Board seit:
    17.06.04
    Zuletzt hier:
    25.11.16
    Beiträge:
    194
    Ort:
    Zürich
    Zustimmungen:
    1
    Kekse:
    10
    Erstellt: 19.11.04   #13
    Hm, die Möglichkeit wäre auch noch da:


    --------------------
    --------------------
    --------------------
    --------------------
    2-5-7--2-5-8-7---
    0-3-5--0-3-6-5---

    uws.
     
  14. The Hunter

    The Hunter Registrierter Benutzer

    Im Board seit:
    30.04.04
    Zuletzt hier:
    6.04.15
    Beiträge:
    793
    Ort:
    BaWü
    Zustimmungen:
    70
    Kekse:
    1.651
    Erstellt: 19.11.04   #14
    bei mir is es so
    --------------------------------------------
    --------------------------------------------
    ------0-3-5--x-0-3-6u5----0-3-5--x-3-0----
    ------0-3-5--x-0-3-6u5----0-3-5--x-3-0----
    --------------------------------------------
    --------------------------------------------

    :rock: :rock: :rock:
     
  15. AgentOrange

    AgentOrange Mod Emeritus Ex-Moderator

    Im Board seit:
    16.04.04
    Zuletzt hier:
    4.12.16
    Beiträge:
    9.766
    Ort:
    Heidelberg
    Zustimmungen:
    353
    Kekse:
    7.549
    Erstellt: 19.11.04   #15
    ich spiels entweder:

    So mit 45% gain und mit ring/mittelfinger:

    -------------------------------------------
    -------------------------------------------
    ------0-3-5-0-3-6u5-0-3-5-3-0------------
    ------0-3-5-0-3-6u5-0-3-5-3-0------------
    -------------------------------------------
    -------------------------------------------


    Oder mit 75% Gain und Plektrum (kommt auch gut wenn man auf D stimmt):


    E|------------------------------------------------------
    B|------------------------------------------------------
    G|-----------------------------------------------------
    D|-----------------------------------------------------
    A|---2---5---7---2----5---8/7---2---5---7---5---2-----
    E|-0-0-0-3-0-5-0-0-0-3-0-6/5-0-0-0-3-0-5-0-3-0-0-----
    ---p---p---p---p----p---p-----p---p---p----p--p------
     
  16. Spittbull

    Spittbull Registrierter Benutzer

    Im Board seit:
    30.08.03
    Zuletzt hier:
    20.07.09
    Beiträge:
    1.271
    Ort:
    nähe Stuttgart
    Zustimmungen:
    0
    Kekse:
    319
    Erstellt: 20.11.04   #16
    0 - 0 - 0
    0 - 0 - 0
    0 - 0 - 0
    2 - 5 - 7 Usw.
    2 - 5 - 7
    0 - 3 - 5
     
  17. HamerMarshall

    HamerMarshall Registrierter Benutzer

    Im Board seit:
    03.06.04
    Zuletzt hier:
    1.11.16
    Beiträge:
    1.355
    Ort:
    Wallerstädten
    Zustimmungen:
    36
    Kekse:
    910
    Erstellt: 20.11.04   #17

    -------------------------------
    -------------------------------
    ----3-5---3-65---3-5--3-------
    --5-3-5-5-3-65-5-3-5--3-5----
    --5-----5-------5-------5----
    -------------------------------

    so spül ich des immer,
    und wenn mich meine augen damals net täuschten dann spielte das blackmoore genauso
     
  18. AgentOrange

    AgentOrange Mod Emeritus Ex-Moderator

    Im Board seit:
    16.04.04
    Zuletzt hier:
    4.12.16
    Beiträge:
    9.766
    Ort:
    Heidelberg
    Zustimmungen:
    353
    Kekse:
    7.549
    Erstellt: 21.11.04   #18
    Hab mal in nem Interview gelesen dass er es nur auf D und G saite spielt :) Und halt so komisch mit Ring/Mittelfinger und das Plek dabei noch zwischen Zeigefinger/Daumen hält. Klingt auch cooler als mim Plek!
     
  19. HamerMarshall

    HamerMarshall Registrierter Benutzer

    Im Board seit:
    03.06.04
    Zuletzt hier:
    1.11.16
    Beiträge:
    1.355
    Ort:
    Wallerstädten
    Zustimmungen:
    36
    Kekse:
    910
    Erstellt: 21.11.04   #19
    Yep, gezupft klingt des härter .....
     
Die Seite wird geladen...

mapping