Wie würdet ihr das hier spielen?

von Blorgh, 06.10.05.

  1. Blorgh

    Blorgh Registrierter Benutzer

    Im Board seit:
    07.11.04
    Zuletzt hier:
    14.10.14
    Beiträge:
    375
    Ort:
    Wien
    Zustimmungen:
    1
    Kekse:
    40
    Erstellt: 06.10.05   #1
    Das ist aus Tyrants von Immortal und wird von der Gitarre gespielt. Die Noten klingen dabei weiter, und werden nicht gedämpft. Ich nehme mal stark an, dass es als Barre gegriffen wird, aber wie kriege ich das nun am Bass hin? Da fehlt mir nämlich die 5., Saite, die eine große Terz höher ist. Ich könnte ja einfach diese große Terz auf der G-Saite greifen, aber das ist bei dem D-Dur Akkord schwer zu realisieren, weil ich dann mit dem Ringfinger sowohl das A, als auch das D auf den A- und D-Saiten am 12. Bund greifen muss. Irgendwie nicht sehr angenehm.. ich würde mich über einen hilfreichen Vorschlag freuen.

    Code:
    --------------------------------------------------|
    --------------------------------------------------|
    --------------12----------12--------------12------|
    ----------14------14----------14------14------14--|
    ------14--------------14----------14--------------|
    --12----------------------------------------------|
    
    
                                                       
    --------------------------------------------------|
    --------------------------------------12----------|
    --------------12----------12----------------------|
    ----------14------14----------14----------14------|
    ------14--------------14----------14----------14--|
    --12----------------------------------------------|
    
    
                                                       
    --------------------------------------------------|
    --------------------------------------------------|
    --------------11----------11--------------11------|
    ----------12------12----------12------12------12--|
    ------12--------------12----------12--------------|
    --10----------------------------------------------|
    
    
                                                       
    --------------------------------------------------|
    --------------------------------------10----------|
    --------------11----------11----------------------|
    ----------12------12----------12----------12------|
    ------12--------------12----------12----------12--|
    --10----------------------------------------------|
     
  2. lord_blizzard

    lord_blizzard Registrierter Benutzer

    Im Board seit:
    02.09.05
    Zuletzt hier:
    18.08.08
    Beiträge:
    483
    Ort:
    Crimmitschau\Sachsen
    Zustimmungen:
    0
    Kekse:
    97
    Erstellt: 06.10.05   #2
    spiels doch so:
    c-------------------------------------------------|
    g----------------7---------7--------------7------|​
    d------------9-----9----------9------9-------9--|
    a-------9-------------9----------9---------------|
    e---7---------------------------------------------|
    b-------------------------------------------------|


    ------------------------------------------7----------|
    -----------------7-------------7---------------------|
    -------------9-----9-------------9----------9-------|
    --------9-------------9-------------9----------9----|
    ---7-------------------------------------------------|
    -----------------------------------------------------|


    ----------------------------------------------------|
    -----------------6---------6-------------6---------|
    -------------7-----7----------7------7-----7------|
    ---------7------------7----------7-----------------|
    -----5----------------------------------------------|
    ----------------------------------------------------|



    ---------------------------------------5-------------|
    -----------------6---------6-------------------------|
    -------------7-----7----------7----------7----------|
    ---------7------------7----------7----------7-------|
    -----5-----------------------------------------------|
    -----------------------------------------------------|
     
  3. Blorgh

    Blorgh Threadersteller Registrierter Benutzer

    Im Board seit:
    07.11.04
    Zuletzt hier:
    14.10.14
    Beiträge:
    375
    Ort:
    Wien
    Zustimmungen:
    1
    Kekse:
    40
    Erstellt: 06.10.05   #3
    Also naja.. ich spiele im Moment noch nen 4-Saiter *g*... edit: und damit das funktioniert müsste die C-Saite auf H gestimmt werden...
     
  4. lord_blizzard

    lord_blizzard Registrierter Benutzer

    Im Board seit:
    02.09.05
    Zuletzt hier:
    18.08.08
    Beiträge:
    483
    Ort:
    Crimmitschau\Sachsen
    Zustimmungen:
    0
    Kekse:
    97
    Erstellt: 06.10.05   #4
    ich glaub ich hab dich falsch verstanden, sorry, das spielt ne gitarre und dir fehlt die h-saite die eine gitarre hat, ja dann nützt dir auch mein vorschlag nichts.
    dann musst die 2 töne der h-gitarrensaite im 7.bund deiner g-saite greifen, dürfte aber ziemlich schwierig werden, es sei denn du hast hände wie ein zyklop...
     
Die Seite wird geladen...

mapping