Wie würdet ihr das spielen mit deadnotes oder...?

von TR Metal, 07.06.06.

  1. TR Metal

    TR Metal Registrierter Benutzer

    Im Board seit:
    21.09.05
    Zuletzt hier:
    24.06.13
    Beiträge:
    607
    Ort:
    @home
    Zustimmungen:
    1
    Kekse:
    216
    Erstellt: 07.06.06   #1
    Wie schon der Titel besagt:

    E||---------------------------|-------------------------------|
    B||---------------------------|-------------------------------|
    G||---------------------------|-------------------------------|
    D||-----7--7-----9--9-----10--|--10------12--12-----10-----9--|
    A||---------------------------|-------------------------------|
    E||--5--------7--------8------|------10----------8------7-----|


    E E E E E E E E E E E E E E E E
    ----------------------------|--------------------------||
    ----------------------------|--------------------------||
    ----------------------------|--------------------------||
    -----10--10-----9--9-----7--|--7-----5--5-----7-----9--||
    ----------------------------|--------------------------||
    --8----------7--------5-----|-----3--------5-----7-----||
     
  2. Mighty Scoop

    Mighty Scoop Registrierter Benutzer

    Im Board seit:
    11.01.05
    Zuletzt hier:
    8.10.13
    Beiträge:
    1.512
    Zustimmungen:
    8
    Kekse:
    1.457
    Erstellt: 07.06.06   #2
    Schwer zu sagen, was ist denn das für ein Stück ? Auf den Tabs allein sieht das für mich nach einem Singlenote-Lauf aus.
     
  3. TR Metal

    TR Metal Threadersteller Registrierter Benutzer

    Im Board seit:
    21.09.05
    Zuletzt hier:
    24.06.13
    Beiträge:
    607
    Ort:
    @home
    Zustimmungen:
    1
    Kekse:
    216
    Erstellt: 07.06.06   #3
    es handelt sich um we want he airwaves von den ramones ich habe bislang auch geglaubt das es single notes sind allerdings nen kollege von mir spielt es mit deanotes und saprt sich damit das alternate picking
     
  4. Cornholio

    Cornholio Registrierter Benutzer

    Im Board seit:
    06.12.04
    Zuletzt hier:
    2.10.16
    Beiträge:
    2.423
    Zustimmungen:
    1
    Kekse:
    3.182
    Erstellt: 08.06.06   #4
    Speziell im Kontext von Ramones macht der Kollege es eindeutig richtig. Dämpf und lass Alternate im Sack.
    Ein Video bei Youtube...
     
  5. TR Metal

    TR Metal Threadersteller Registrierter Benutzer

    Im Board seit:
    21.09.05
    Zuletzt hier:
    24.06.13
    Beiträge:
    607
    Ort:
    @home
    Zustimmungen:
    1
    Kekse:
    216
    Erstellt: 08.06.06   #5
    danke fürs video
     
  6. Cornholio

    Cornholio Registrierter Benutzer

    Im Board seit:
    06.12.04
    Zuletzt hier:
    2.10.16
    Beiträge:
    2.423
    Zustimmungen:
    1
    Kekse:
    3.182
    Erstellt: 08.06.06   #6
    Danke für die Bewertung. ;)
     
Die Seite wird geladen...

mapping