wie würdet ihr das spielen?

von Growlerator, 23.10.05.

  1. Growlerator

    Growlerator Registrierter Benutzer

    Im Board seit:
    05.10.05
    Zuletzt hier:
    20.11.05
    Beiträge:
    20
    Zustimmungen:
    0
    Kekse:
    10
    Erstellt: 23.10.05   #1
    ich weiß nicht ob ich mich dumm dranstelle aber ich schaffs irgendwie nicht mir bei tabs selbst fingersätze abzuleiten. :(

     
  2. Chillkröte86

    Chillkröte86 Registrierter Benutzer

    Im Board seit:
    18.02.05
    Zuletzt hier:
    17.11.11
    Beiträge:
    453
    Ort:
    Dortmund
    Zustimmungen:
    0
    Kekse:
    351
    Erstellt: 23.10.05   #2
    also ich würde...
    die D-Saite mitm Zeigefinger
    die A-Saite mitm Mittelfinger (3) und kleinem finger (5)
    die E-Saite mitm Mittelfinger (3) und Zeigefinger (1)

    ich hoffe da steigt man durch...das is für mich der unkomplizierteste fingersatz
     
  3. GUARDiAN?

    GUARDiAN? Registrierter Benutzer

    Im Board seit:
    10.02.05
    Zuletzt hier:
    12.11.06
    Beiträge:
    69
    Ort:
    München
    Zustimmungen:
    0
    Kekse:
    10
    Erstellt: 23.10.05   #3
    So würde ich es greifen...

    Code:
    e--------------------------------------------------|
    B--------------------------------------------------|
    G--------------------------------------------------|
    D------------2---------2---------2------2-2--------|X4
    A----3-3-5-5-------5-5---0-0-5-5------------5------|
    E--------------3-3------------------1-1------------|
    
         M M K K Z M M K K Z     K K Z  Z Z M M K
    
    Z = Zeigefinger
    M = Mittelfinger
    K = Kleinerfinger
     
  4. Fastel

    Fastel Helpful & Friendly User HFU

    Im Board seit:
    11.04.04
    Zuletzt hier:
    5.12.16
    Beiträge:
    5.926
    Ort:
    Tranquility Base
    Zustimmungen:
    565
    Kekse:
    18.025
    Erstellt: 23.10.05   #4
    --------------------------------------------------
    --------------------------------------------------
    --------------------------------------------------
    -------0-0-2--------0-0-2------0-0-2-----2-2-0--
    --3-3----------------------0-0-------------------
    ---------------3-3--------------------1-1--------

    mal so versucht? sollte einfacher gehen...
     
  5. Hans_3

    Hans_3 High Competence Award HCA

    Im Board seit:
    09.11.03
    Beiträge:
    16.142
    Zustimmungen:
    1.120
    Kekse:
    49.592
    Erstellt: 23.10.05   #5

    Bei ROT M statt Z spielen, sonst klappt der Übergang von D/2 nach E/1 nicht gut:

    Code:
    e--------------------------------------------------|
    B--------------------------------------------------|
    G--------------------------------------------------|
    D------------2---------2---------2------2-2--------|X4
    A----3-3-5-5-------5-5---0-0-5-5------------5------|
    E--------------3-3------------------1-1------------|
    
         M M K K Z M M K K Z     K K [COLOR="Red"]M[/COLOR]   Z Z M M K
    
     
Die Seite wird geladen...

mapping