Workshop Haste the day-Long way down

von homespun, 24.06.07.

  1. homespun

    homespun Registrierter Benutzer

    Im Board seit:
    07.08.05
    Zuletzt hier:
    2.12.16
    Beiträge:
    765
    Ort:
    Bobenheim-Roxheim
    Zustimmungen:
    24
    Kekse:
    2.173
    Erstellt: 24.06.07   #1
    So, auch wenn der The Loner von Gary Moore Workshop noch läuft, was ja eher in Richtung Blues geht, stelle ich noch einen zweiten Workshop online!

    Diesmal geht es aber nicht um Solospiel und softe Töne, sondern ein einfaches aber prägnantes Drop D Riff.

    Zu erwähnen wäre noch, das der Song eigentlich von den GooGoo Dolls ist, aber um einiges sanfter als von Haste the Day...

    Wer Haste the day als Band und Long way down als Song nicht kennt...

    Hier mal die Infos zur Band :

    http://de.wikipedia.org/wiki/Haste_The_Day

    Hier der Link zum Song (Video) :

    http://www.youtube.com/watch?v=XazJQmprdJs

    ... hab leider kein Video der Band gefunden, was den Song deutlich und klar wiedergibt, deswegen dieses etwas eigenartige Video :D


    Hier mal mein etwas längeres Video das ich gerade zum Song aufgenommen habe :

    http://www.myvideo.de/watch/1765023

    Gitarrenstimmung :

    DADGHE der Song wird also in meinem Workshop in Drop D gespielt!


    Hier die Tabs :

    Dieses folgende Riff wird als Intro 4 mal wiederholt !
    Später tritt es nochmals im Chorus auf, wo es ebenfalls 4 mal wiederholt wird!

    E----------------------------------------
    H----------------------------------------
    G----------------------------------------
    D----5-7-7-X-X-10-10-9-7-5-3-~-5--
    A----5-7-7-X-X-10-10-9-7-5-3-~-5-- diese Riff wird 4 mal wiederholt
    D----5-7-7-X-X-10-10-9-7-5-3-~-5--

    An der grün markierten stelle, den Akkord schön klingen/schwingen lassen!


    E|--------------------------------------------------------------------
    B|--------------------------------------------------------------------
    G|--------------------------------------------------------------------
    D|---7-5-3-~-5-~-5/7-----7-5-3-~-5-~-3-~-5-~-3-~-5-~-7-~-
    A|---7-5-3-~-5-~-5/7-----7-5-3-~-5-~-3-~-5-~-3-~-5-~-7-~-
    D|---7-5-3-~-5-~-5/7-----7-5-3-~-5-~-3-~-5-~-3-~-5-~-7-~-


    Auch hier wieder an den grün markierten Stellen den Akkord schön klingen/schwingen lassen !

    An den rot markierten Stellen slidet man in den nächsten Ton!


    So, die Videos zu den einzelnen Passagen in anschaulichem und deutlichen Tempo folgen noch heute! Viel Spaß mit diesem einfachen aber sehr prägnanten Riff zu Long way down!!!
     
  2. homespun

    homespun Threadersteller Registrierter Benutzer

    Im Board seit:
    07.08.05
    Zuletzt hier:
    2.12.16
    Beiträge:
    765
    Ort:
    Bobenheim-Roxheim
    Zustimmungen:
    24
    Kekse:
    2.173
    Erstellt: 24.06.07   #2
    Hier das Video zum Intro bzw. dem Chorus :

    http://www.myvideo.de/watch/1765575

    Hier die dazugehörigen Tabs :

    E----------------------------------------
    H----------------------------------------
    G----------------------------------------
    D----5-7-7-X-X-10-10-9-7-5-3-~-5--
    A----5-7-7-X-X-10-10-9-7-5-3-~-5-- dieses Riff wird 4 mal wiederholt
    D----5-7-7-X-X-10-10-9-7-5-3-~-5--

    (Tabs nochmal zum Verdeutlichen-stehen ja schon oben im Thread!)



    Hier das Video zur Strophe :

    http://www.myvideo.de/watch/1765614

    Hier nochmals die Tabs-stehen auch oben am Anfang des Threads:


    E|--------------------------------------------------------------------
    B|--------------------------------------------------------------------
    G|--------------------------------------------------------------------
    D|---7-5-3-~-5-~-5/7-----7-5-3-~-5-~-3-~-5-~-3-~-5-~-7-~-
    A|---7-5-3-~-5-~-5/7-----7-5-3-~-5-~-3-~-5-~-3-~-5-~-7-~-
    D|---7-5-3-~-5-~-5/7-----7-5-3-~-5-~-3-~-5-~-3-~-5-~-7-~-
     
Die Seite wird geladen...

mapping