Yellowcard - Everywhere

von CastorTroy, 09.08.04.

  1. CastorTroy

    CastorTroy Registrierter Benutzer

    Im Board seit:
    21.10.03
    Zuletzt hier:
    8.08.07
    Beiträge:
    376
    Ort:
    Nähe Mainz
    Zustimmungen:
    0
    Kekse:
    17
    Erstellt: 09.08.04   #1
    ein sehr fettes cover!
    ich finds besser als das original (michelle branch)!

    http://www.mxtabs.net/tab_versions.php?path=Guitar,y,3989,Yellowcard,Everywhere,138120

    hab brauchbare tabs gefunden! nur der violinteil, der in den tabs als git-teil zu finden is macht mich stutzig...

    quelle: mxtabs.net
    Intro Cont'd: (Violin Part)
    e|--------------------------5-5-5-5-5-7-9--9p7-7~---5-4~--5-4-2~-----|
    B|-----------------------------------------------------------------------|
    G|------2-4-6--4-6--4h6-4~---------------------------------------------|
    D|4-4-4-----------------------------------------------------------------|
    A|----------------------------------------------------------------------|
    D|----------------------------------------------------------------------|

    ich bin allerdings der meinung, dass es so gespielt wird:
    Intro Cont'd: (Violin Part)
    e|--------------------------5-5-5-5-5-7-9-10-9p7-7~---5-4~--4-2~----|
    B|----------2--3-2-----------------------------------------------------|
    G|------2h4--------4h6p4~---------------------------------------------|
    D|--4-4----------------------------------------------------------------|
    A|----------------------------------------------------------------------|
    D|----------------------------------------------------------------------|

    punkt 2 (in der original-tab nicht zu finden - siehe mxtabs.net):
    was wird bei dem violin part in der bridge gespielt?
    hab mir folgendes rausgehört...

    Part After Solo: (Violin* and drums only)
    *----------------
    -----------------
    ----7~-6~-4~---
    -----------------
    -----------------
    -----------------

    der gesang an der stelle passt auf die chorus-akkorde

    wer schlauer is als ich möge mich doch bitte aufklären!^^
    im voraus vielen dank!
     
  2. 4feetsmaller

    4feetsmaller Mod Emeritus Ex-Moderator HFU

    Im Board seit:
    28.08.06
    Zuletzt hier:
    26.07.16
    Beiträge:
    6.980
    Ort:
    Brotterode | Th
    Zustimmungen:
    30
    Kekse:
    9.833
    Erstellt: 06.11.06   #2
Die Seite wird geladen...

mapping