Zakk wylde´s stillborn

von Megarob, 01.10.04.

  1. Megarob

    Megarob Gesperrter Benutzer

    Im Board seit:
    02.08.04
    Zuletzt hier:
    2.11.05
    Beiträge:
    236
    Zustimmungen:
    0
    Kekse:
    10
    Erstellt: 01.10.04   #1
    hi
    brauche akkorde für Stillborn von BLS
    kann mir jemand sagen wo ich tabs zum akkustik song von stillborn finde zakk hat es damals im radio gespielt ok danke :great: :rock:
     
  2. RAGMAN

    RAGMAN Mod Emeritus - Gitarren Ex-Moderator

    Im Board seit:
    19.08.03
    Zuletzt hier:
    31.08.13
    Beiträge:
    5.410
    Ort:
    zu Hause...
    Zustimmungen:
    12
    Kekse:
    2.538
    Erstellt: 01.10.04   #2
    Code:
    Tuning: E A D G B e
    
    
    Intro/verse
    E|---5-----5-----5---4-----4----4---2-----2-----2---2----------------|
    B|-----2-----2---------2-----2--------2-----2---------2--------------|
    G|-------------------------------------------------------------------|
    D|-------------------------------------------------------------------|
    A|-4-----4-----4---4-----4----4---4-----4-----4---4-----4-------2-4--|
    E|-2-----2-----2---2-----2----2---2-----2-----2---2-----2--2-5-------|
    
    Chorus
    E|---0-----0-----0-----0-----0-----0---2-----2-----2---2-----2-----2-|
    B|-----0-----0-----------0-----0---------2-----2---------2-----2-----|
    G|-1-----1-----1---1/2-----2-----2---------2-----2---------2-----2---|
    D|-2---------------------------------4---------------4---------------|
    A|-2---------------------------------4---------------4---------------|
    E|-0---------------------------------2---------------2---------------|
      The feelings I once felt....
    
    Extended Chorus                       /                              3X \
    E|---0-----0-----0-----0-----0-----0-|---2------------0-----0-----0------|
    B|-----0-----0-----------0-----0-----|-----2----2-------0-----0----------|
    G|-1-----1-----1---1/2-----2-----2---|------------2-1-----1-----1--------|
    D|-2---------------------------------|-4-----2------2--------------------|
    A|-2---------------------------------|-4-----0------2--------------------|
    E|-0---------------------------------|-2-----5------0--------------------|
                                          \ waited here for you...          / 
                                                                     
    Interlude
    E|-----------------------------------------------------------------|
    B|---6-----6-----6---6-----6-----6---6-----6-----6---6-----6-----6-|
    G|-----5-----5---------5-----5---------5-----5---------5-----5-----|
    D|-4-----4-----4---6-----6-----6---7-----7-----7---6-----6-----6---|
    A|-----------------------------------------------------------------|
    E|-----------------------------------------------------------------|
    
      Solo riff 
    E|--------------------------------------------------|
    B|-------------2--2--2--2---2--2--2--2---2--2--2--2-|
    G|-------------2--2--2--2---2--2--2--2---2--2--2--2-|
    D|-4--4--4--4--2--2--2--2---2--2--2--2---2--2--2--2-|
    A|-4--4--4--4--0--0--0--0---0--0--0--0---0--0--0--0-|
    E|-2--2--2--2---------------------------------------|
    
    Bridge
    E|-2-2---2-2---2-2---2-2---2-2--2-|
    B|-2---2-2---2-2---2-2---2-2----2-|
    G|-2-----2-----2-----2-----2----2-|
    D|-4-----4-----4-----4-----4----4-|
    A|-3-----2-----3-----2-----3----2-|
    E|-2-----2-----2-----2-----2----2-|
    
    Outro Chorus
    E|---2----2-2---0-0-----0-----0-|
    B|-----2--3---3-0---0-----0-----|
    G|--------2-----1-----1-----1---|
    D|-4------0-----2---------------|
    A|-4------------2---------------|
    E|-2------------0---------------|
      waited here for you...
    
    play intro/verse riff then...
    End
    E|-----------------2-|
    B|-----------------2-|
    G|-----------------2-|
    D|-----------------4-|
    A|---2-4-2h4p2p0---4-|
    E|-5-------------0-2-|
    RAGMAN
     
  3. Megarob

    Megarob Threadersteller Gesperrter Benutzer

    Im Board seit:
    02.08.04
    Zuletzt hier:
    2.11.05
    Beiträge:
    236
    Zustimmungen:
    0
    Kekse:
    10
    Erstellt: 01.10.04   #3
    hey cool danke danke danke :o :great:
     
  4. RAGMAN

    RAGMAN Mod Emeritus - Gitarren Ex-Moderator

    Im Board seit:
    19.08.03
    Zuletzt hier:
    31.08.13
    Beiträge:
    5.410
    Ort:
    zu Hause...
    Zustimmungen:
    12
    Kekse:
    2.538
    Erstellt: 01.10.04   #4
    bitte bitte, viel Spaß damit...

    RAGMAN
     
Die Seite wird geladen...

mapping