11/97 - Onkelz

von ATK, 09.02.06.

  1. ATK

    ATK Registrierter Benutzer

    Im Board seit:
    02.10.05
    Zuletzt hier:
    4.06.09
    Beiträge:
    261
    Ort:
    N ü r n b e r g
    Zustimmungen:
    0
    Kekse:
    42
    Erstellt: 09.02.06   #1
    mit welchem effekt spielen die onkelz das instrumentale lied 11/97 ?

    ....werde später ein stück des liedes hier reinstellen, für die die es nicht kennen.....
     
  2. Stefan Hetfield

    Stefan Hetfield Registrierter Benutzer

    Im Board seit:
    22.01.06
    Zuletzt hier:
    2.05.12
    Beiträge:
    375
    Ort:
    Langen
    Zustimmungen:
    0
    Kekse:
    291
    Erstellt: 09.02.06   #2
    Das habe ich mich auch schon gefragt. Generell verwendet Gonzo meiner Meinung nach eher untypische Verzerrer, siehe Nekrophil Live in Dortmund...
    Also für die Musikrichtung untypisch meine ich...
     
  3. ATK

    ATK Threadersteller Registrierter Benutzer

    Im Board seit:
    02.10.05
    Zuletzt hier:
    4.06.09
    Beiträge:
    261
    Ort:
    N ü r n b e r g
    Zustimmungen:
    0
    Kekse:
    42
    Erstellt: 11.02.06   #3
    http://home.arcor.de/crawlis/10-97 mitte.mp3


    RIFF 2: 2x
    e ---------------------------------------------------
    B -----8--8--7---------------------------------------
    G --9--------------7/9-------------------------------
    D --------------9------------------------------------
    A -----------------------------------2-----2---2-----
    E ---------------------------0-0-0-0-0-0-0-0-0-0-----


    e ---------------------------------------------------
    B ---------------------------------------------------
    G ---------------------------------------------------
    D ---------------------------------------------------
    A ----------2-----2----------------------------------
    E --0-0-0-0-0-0-0-0----------------------------------


    RIFF 3: 4x
    e ---------------------------------------------------
    B ---------------------------------------------------
    G -----------7------------7--------------------------
    D -----5--7---------5--7-----7--5--------------------
    A --7------------7-----------------------------------
    E ---------------------------------------------------


    RIFF 4: 4x
    e ---------------------------------------------------
    B --------------3--3--------------------3--3---------
    G --------0--0--------0--0--------0--0--------0--0---
    D --2--2--------------------2--2---------------------
    A ---------------------------------------------------
    E ---------------------------------------------------


    e ---------------------------------------------------
    B --------------3--3--------------------3--3---------
    G --2--2--0--0--------0--0--2--2--0--0--------0--0---
    D ---------------------------------------------------
    A ---------------------------------------------------
    E ---------------------------------------------------
     
  4. Jerry77

    Jerry77 Registrierter Benutzer

    Im Board seit:
    07.10.04
    Zuletzt hier:
    17.01.10
    Beiträge:
    894
    Ort:
    Essen
    Zustimmungen:
    1
    Kekse:
    260
    Erstellt: 12.02.06   #4
    Chorus und Flanger
     
  5. Nico Ramone

    Nico Ramone Registrierter Benutzer

    Im Board seit:
    01.12.05
    Zuletzt hier:
    24.09.14
    Beiträge:
    388
    Ort:
    Berlin
    Zustimmungen:
    11
    Kekse:
    647
    Erstellt: 12.02.06   #5
    ???

    Finde ich eigentlich garnicht, Gonzo setzt eher 08/15 Standarteffekte ein und die auch nicht unbedingt übermäßig, Gonzo ist ja bekanntlich ein Vintagefan *lol*
     
  6. Fazer

    Fazer Registrierter Benutzer

    Im Board seit:
    17.09.04
    Zuletzt hier:
    29.01.15
    Beiträge:
    85
    Ort:
    Hessen
    Zustimmungen:
    0
    Kekse:
    10
    Erstellt: 12.02.06   #6
    hier kannst du etwas nachlesen über sein equipment.

    ist scheinbar eine neue seite von ihm.

    viel spaß:cool:


    http://www.gonzomusic.de/
     
  7. ATK

    ATK Threadersteller Registrierter Benutzer

    Im Board seit:
    02.10.05
    Zuletzt hier:
    4.06.09
    Beiträge:
    261
    Ort:
    N ü r n b e r g
    Zustimmungen:
    0
    Kekse:
    42
    Erstellt: 13.02.06   #7
    wie bekomme ich den sound beim micro cube ?
    ich hab flanger und chorus, aber getrennt,......kann sie nicht zusammennehmen.....
     
  8. Nico Ramone

    Nico Ramone Registrierter Benutzer

    Im Board seit:
    01.12.05
    Zuletzt hier:
    24.09.14
    Beiträge:
    388
    Ort:
    Berlin
    Zustimmungen:
    11
    Kekse:
    647
    Erstellt: 13.02.06   #8
    dann würde ich nur den Flanger nehmen...bei EQ oder so musst du schauen;)
     
  9. Stefan Hetfield

    Stefan Hetfield Registrierter Benutzer

    Im Board seit:
    22.01.06
    Zuletzt hier:
    2.05.12
    Beiträge:
    375
    Ort:
    Langen
    Zustimmungen:
    0
    Kekse:
    291
    Erstellt: 13.02.06   #9
    Ja, ich habe es vllt. etwas schlecht ausgedrückt. Ich meinte, ich höre diesen Effekt, z.B. Flanger gar nicht so oft bei den Bands die ich höre, deshalb eher für mich untypisch. ;) Ansonsten ist Gonzo ein Gitarrist, der sehr einfache Sachen einfach perfektioniert spielt, das ist alles. :great:
     
Die Seite wird geladen...

mapping