Jan Delay Bass Tabs

  • Ersteller Sebastian_R
  • Erstellt am
S

Sebastian_R

Registrierter Benutzer
Zuletzt hier
05.02.14
Mitglied seit
08.02.07
Beiträge
60
Kekse
0
Ort
Graz/Österrreich
Hallo

ich suche Tabs zu Klar und Türlich Türlich von Jan Delay

Ich hab schon google durchforstet und ein paar seiten (bassmasta, 911tabs....) konnte aber nirgend etwas finden.

Weiß jemand von euch wo sowas zu finden ist??

lg
 
renue

renue

Registrierter Benutzer
Zuletzt hier
08.08.12
Mitglied seit
16.06.06
Beiträge
112
Kekse
58
Ort
Münster
Türlich Türlich ist doch n Insrumentalcover von Word Up.
Kannst du nich einfach Tabs von dem Song nehmen?
 
carrot

carrot

Registrierter Benutzer
Zuletzt hier
20.12.10
Mitglied seit
15.01.09
Beiträge
124
Kekse
214
Ort
Nähe Köln
hm, so schwer ist das doch nicht... müssteste dir eigentlich selber raushören ;)
aber ok:

türlich:

-----------------------------------------------------
---4-4------------------------------44--4----------
-------------77-7------5-5-7-7-------7------------
-----------------------------------------------------


klar:


hier variiert er ab und zu n bisl, und den übergang zwischen strophe-refrain hör ich grad nicht vernünftig (ist zu spät ums lauter zu machen:D)
strophe
-----------------------------------------------------
-------------------------------------------6---------
-----88-888---88-888---------88-888------------
-----------------------------------------------------

chorus
---------------------------------------------------------
---------------------------6-----------------------------
------66-666----55-555----88---888-----88---888--
---------------------------------------------------------


ganz nebenbei: ich hasse tabs, wer hat sich das ausgedacht??
 

Ähnliche Themen

Neue Themen

Unser weiteres Online-Angebot:
Bassic.de · Deejayforum.de · Sequencer.de · Clavio.de · Recording.de

Musiker-Board Logo
Oben