Suche Silbermond meer sein tab gp

von chiller mit bass, 17.08.06.

  1. chiller mit bass

    chiller mit bass Registrierter Benutzer

    Im Board seit:
    03.02.06
    Zuletzt hier:
    21.01.07
    Beiträge:
    13
    Zustimmungen:
    0
    Kekse:
    10
    Erstellt: 17.08.06   #1
    also
    ich suche einen tab von meer sein wenn möglich nen guitar pro tab,
    damit kann ich am besten arbeiten.

    aber ich find nichts davon erst recht keinen gp tab,
    wäre schon wenn mir da jemand helfen könnte,
    weil ich das mit meiner band gern spielen würde,
    aber ich noch nicht raushören kann.

    danke schonmal im vorraus
     
  2. Ryknow

    Ryknow Registrierter Benutzer

    Im Board seit:
    18.01.06
    Zuletzt hier:
    18.08.15
    Beiträge:
    4.640
    Ort:
    Zuhause
    Zustimmungen:
    730
    Kekse:
    10.700
    Erstellt: 17.08.06   #2
    ich kann dir nur meine getabbte Version geben....ist aber nich Guitar Pro...
     
  3. chiller mit bass

    chiller mit bass Threadersteller Registrierter Benutzer

    Im Board seit:
    03.02.06
    Zuletzt hier:
    21.01.07
    Beiträge:
    13
    Zustimmungen:
    0
    Kekse:
    10
    Erstellt: 17.08.06   #3
    das ist doch nen anfang vieleicht kann ich da was mit anfang
    kannst du mir mal bitte schicken oder so

    obwohl wenn einer noch ne gp version hat
    wäre auch gut
     
  4. Ryknow

    Ryknow Registrierter Benutzer

    Im Board seit:
    18.01.06
    Zuletzt hier:
    18.08.15
    Beiträge:
    4.640
    Ort:
    Zuhause
    Zustimmungen:
    730
    Kekse:
    10.700
    Erstellt: 17.08.06   #4
    copyright ist bei mir !!!!


    Artist: Silbermond
    Song: Meer sein
    Album: Laut Gedacht
    Tabbed by: Chrishi *bei fragen: chrishi87@web.de *
    Tuning: Standart BEADG
    Anmerkung: Müsste soweit richtig sein, natürlich ist es schwer genau das selbe zu spielen
    aber immerhin hat man hierdurch einen sehr guten Leitfaden.
    G----|-------------------------------------------------------------
    D----|--------------------------------------------------------------
    A----|---------------------------------------------------------------
    E----|--------------------------------88-888-888-888-866656665666568---
    B-15\|33-333-333-333-366-666-666-666-6---------------------------------
    Vers
    G----12h14-12-------14-15-17-----------------------------------------------------------
    D-12----------12-15---------10-10h12-14-15-13h15-14------------------------------------
    A---------------------------------------------------------------12-14-15---------------
    E----------------------------------------------------10-8\10-13----------8-8\10-6--6\8-
    B--------------------------------------------------------------------------------------
    Pre Refrain
    G------------------------------
    D------------------------------
    A------------------------------
    E------------6~~~~~66666666666-
    B-3~~~~1~~~~-------------------
    Chorus
    G------------------------------------------------------
    D------------------------------------------------------
    A------------------------------------------------------
    E-------------------------88888888888866656665666568---
    B-333333333333666666666666-----------------------------
    G-----------------------------------------------------------------
    D-----------------------------------------------------------------
    A-------------------------------------\121212101010---------------
    E-------------------------888888888888-------------6656665666568--
    B-333333333333666666666666----------------------------------------
    Intro
    Verse 2
    G----------------------------------------------------------------------------------------
    D----------------------------------------------------------------------------------------
    A-----------------15~~~13h15-13~~--------------------------------------------------------
    E-10~~~~10\13~~~~~---------------8p6~~---1010101010101013131313131315158888888866666666--
    B----------------------------------------------------------------------------------------
    Pre Refrain
    G------------------------------
    D------------------------------
    A------------------------------
    E------------6~~~~~66666666666-
    B-3~~~~1~~~~-------------------
    Chorus just the 1st line twice
    Bridge auch so in der art so...
    G---------------------------------------
    D---------------------------------------
    A---------------------------------------
    E-----------------66-----66---665356----
    B-33----/\11----/\-----/\-----------3-3-
    G-------------------------------------------------
    D-------------------------------------------------
    A-------------------------------------------------
    E-------------------------66-6666----66---6653568-
    B-33-3333---/\11-11111---/\-----------------------
    Basssolo...hard to say...I`m too lazy to tab it all out the right way
    G---------------------------------------------------------------------------------
    D-----------------12-10-----------------10--10------------------------------------
    A-------12-12-----------12/---10-10-------12----------88------8--8-----10---------
    E-10-10-------10------------8--------8-8----------6-6----6--6--6---8-8----8-8--8--
    B---------------------------------------------------------------------------------
    G------------------------------------------------------------------------------
    D-----------------12-10-----------------10--10---------------------------------
    A-------12-12-----------12/---10-10-------12----------88------8--8-------------
    E-10-10-------10------------8--------8-8----------6-6----6--6--6---6666666666/-
    B------------------------------------------------------------------------------
    Outro
    G--------------------------------------------------------------------
    D--------------------------------------------------------------------
    A--------------------------------------------------------------------
    E--------------------------------------------------------------------
    B-33-333-333-333-333-333-33331111-33-333-333-333-333-333333-6667777-
    pause
    G-----------------------------------------------------------------
    D-----------------------------------------------------------------
    A------------------------------------\121212101010----------------
    E------------------------888888888888-------------6656665666568---
    B---------/666666666666-------------------------------------------
    G--------------------------------------------------------------------------------------
    D--------------------------------------------------------------------------------------
    A-------------------------------------------------------131313121313131213121312131213-
    E-------------------------888888888888101010101013131313-------------------------------
    B-333333333333666666666666-------------------------------------------------------------

    G------------------------------------------------------------------
    D------------------------------------------------------------------
    A------------------------------------------------------------------
    E---------------------------------88-888-888-888-866656665666568---
    B-33-333-333-333-366-666-666-666-6---------------------------------
    G---------------------------------------------------
    D---------------------------------------------------
    A-----------------------------------------------35-- der schluss ist sehr schnell!!!!
    E-------------------------66-6666----66---665356----
    B-33-3333---/\11-11111---/\-------------------------
     
  5. chiller mit bass

    chiller mit bass Threadersteller Registrierter Benutzer

    Im Board seit:
    03.02.06
    Zuletzt hier:
    21.01.07
    Beiträge:
    13
    Zustimmungen:
    0
    Kekse:
    10
    Erstellt: 18.08.06   #5
    danke
    nur eine frage was sollen diese /\ bedeuten hab ich vorher noch nicht gesehen

    wenn noch einer ne guitar pro version hat wär trotzdem gut
     
  6. Spawn_Ric

    Spawn_Ric Registrierter Benutzer

    Im Board seit:
    11.09.05
    Zuletzt hier:
    30.08.15
    Beiträge:
    821
    Ort:
    Leipzig
    Zustimmungen:
    0
    Kekse:
    409
    Erstellt: 18.08.06   #6
    Bei 'nem normalen Fünfsaiter heisst es aber immernoch HEADG, oder hat der Bassist von Silbermond da irgendwas, was ich nicht wissen sollte?
     
  7. Yourbestfriend

    Yourbestfriend Registrierter Benutzer

    Im Board seit:
    24.11.05
    Zuletzt hier:
    2.11.15
    Beiträge:
    174
    Zustimmungen:
    0
    Kekse:
    346
    Erstellt: 18.08.06   #7
    Nur in Deutschland wird das "H" verwendet, überall sonst heisst derselbe Ton "B". Da ist BEADG eben ein wenig internationaler.
     
  8. Ryknow

    Ryknow Registrierter Benutzer

    Im Board seit:
    18.01.06
    Zuletzt hier:
    18.08.15
    Beiträge:
    4.640
    Ort:
    Zuhause
    Zustimmungen:
    730
    Kekse:
    10.700
    Erstellt: 18.08.06   #8
    ich hasse das H...das klingt so...gay ^^

    und außerdem fehlt dann was...

    acdefgh oder
    abcdefg

    da ist das 2te besser...und man kann es sich leichter merken ^^ ich jedenfalls

    und die \/ sind slides
     
  9. Spawn_Ric

    Spawn_Ric Registrierter Benutzer

    Im Board seit:
    11.09.05
    Zuletzt hier:
    30.08.15
    Beiträge:
    821
    Ort:
    Leipzig
    Zustimmungen:
    0
    Kekse:
    409
    Erstellt: 19.08.06   #9
    Ja wir sind hier aber imo in Deutschland und die Saitennamen für einen Fünfsaiter sind hier nach wie vor, HEADG. Ich wollts ja nur gesagt haben das hier keine Verwirrung aufkommt.
     
  10. Yourbestfriend

    Yourbestfriend Registrierter Benutzer

    Im Board seit:
    24.11.05
    Zuletzt hier:
    2.11.15
    Beiträge:
    174
    Zustimmungen:
    0
    Kekse:
    346
    Erstellt: 21.08.06   #10
    "Wir" ist im Internet eine sehr schwammige Bezeichnung. Zudem: Wenn dir das "B" nicht liegt, warum schreibst du dann "imo" anstelle von mMn oder mE?
    Aber ZZT (Zurück zum Thema) ;)
     
  11. Spawn_Ric

    Spawn_Ric Registrierter Benutzer

    Im Board seit:
    11.09.05
    Zuletzt hier:
    30.08.15
    Beiträge:
    821
    Ort:
    Leipzig
    Zustimmungen:
    0
    Kekse:
    409
    Erstellt: 21.08.06   #11
    Ne nich zurück zum Thema, jetzt hast du mich "angepiksert" :D
    Stimmt, Wir ist eine sehr schwammige Bezeichnung, ich hatte es aber auf die Bassergemeinde hier bezogen. "Imo" benutze ich rein aus Gewohnheit hier im Internet, ich werd mir "mMn" angewöhnen :D;)

    Greetz,
    Rico
     
  12. Lilli486

    Lilli486 Registrierter Benutzer

    Im Board seit:
    10.04.07
    Zuletzt hier:
    31.03.10
    Beiträge:
    13
    Zustimmungen:
    0
    Kekse:
    10
    Erstellt: 10.04.07   #12
    hallo hat jemand Meer sein (u.a. Silbermond songs) für einen 4 Saiter... wäre cool!
     
  13. Küsschen

    Küsschen Registrierter Benutzer

    Im Board seit:
    28.05.07
    Beiträge:
    68
    Zustimmungen:
    0
    Kekse:
    10
    Erstellt: 28.05.07   #13
    suche tab für gitarre ?!!??!? bitte
     
  14. Tobbse

    Tobbse Registrierter Benutzer

    Im Board seit:
    10.12.05
    Zuletzt hier:
    5.03.12
    Beiträge:
    698
    Ort:
    Hemer
    Zustimmungen:
    2
    Kekse:
    597
    Erstellt: 28.05.07   #14
  15. friekie

    friekie Registrierter Benutzer

    Im Board seit:
    11.07.07
    Zuletzt hier:
    4.03.12
    Beiträge:
    7
    Zustimmungen:
    0
    Kekse:
    10
    Erstellt: 11.07.07   #15
    hat vllt jmd die kompletten tabs von 'meer sein' .. .ich braeuchte die, weil ich ein paar kiddies das in einem workshop beibringen soll, leider krieg ich das nicht rausgehoert.
     
  16. Hades

    Hades Registrierter Benutzer

    Im Board seit:
    13.11.05
    Zuletzt hier:
    22.05.09
    Beiträge:
    4
    Zustimmungen:
    0
    Kekse:
    10
    Erstellt: 30.05.08   #16
    hey ryknow! hab das tab auch gesucht. deins hat mir schon sehr weitergeholfen. solo halt noch raushorchn... der rest passt ganz gut. danke.

    ich hatte mit dem B auch keine probleme. wenn ich neue saiten draufmache steht das auch auf der packung von der ganz dicken drauf.
    in meinem stimmgerät steht auch B wenns passt. wenn sichs blöd anhört steht dann da Bb oder C ;)

    konnt ich mir nicht verkneifen, sorry... :screwy:
     
  17. Boerx

    Boerx Helpful & Friendly User HFU

    Im Board seit:
    07.08.05
    Zuletzt hier:
    2.12.16
    Beiträge:
    3.174
    Ort:
    Karlsruhe
    Zustimmungen:
    383
    Kekse:
    14.712
    Erstellt: 31.05.08   #17

    Das ist auch echt kein Lied für kleine Kiddies. Das hat es ganz schön ordentlich
     
  18. friekie

    friekie Registrierter Benutzer

    Im Board seit:
    11.07.07
    Zuletzt hier:
    4.03.12
    Beiträge:
    7
    Zustimmungen:
    0
    Kekse:
    10
    Erstellt: 01.06.08   #18
    stimmt schon, aber hat alles geklappt.
    man muss es ja nicht so ewig kompliziert machen ;)
     
Die Seite wird geladen...

mapping