Tabs für BB King Lucille?

  • Ersteller Chrischtoph
  • Erstellt am

C
Chrischtoph
Registrierter Benutzer
Zuletzt hier
29.09.13
Registriert
04.12.03
Beiträge
217
Kekse
40
Kann mir jemand sagen wo ich Tabs für Lucille von BB King herkriege?
ISt das typisch blues style?? :oops:
Hab keine Ahnung!!!

Gruß Christoph
 
Eigenschaft
 
P
Punisher
Registrierter Benutzer
Zuletzt hier
23.05.04
Registriert
12.11.03
Beiträge
164
Kekse
0
jetzt wo ich das gerade höre hätte ich auch interesse an den tabs!
 
M
moo
Registrierter Benutzer
Zuletzt hier
07.04.08
Registriert
20.08.03
Beiträge
516
Kekse
41
Chrischtoph schrieb:
Kann mir jemand sagen wo ich Tabs für Lucille von BB King herkriege?
ISt das typisch blues style?? :oops:
Hab keine Ahnung!!!

Gruß Christoph

du meinst Bass-Tabs??
ist das allerklassischste was es gibt, und ja, blues, rock, was du willst, ich glaub du kannst mit diesem Lick sogar saemtliche Opern begeleiten...

---------------------5-------5-8----------5--------------------------------
--------5-8----5-8------6-----------5-8----------5-8---------------5-8---
---6-------------------------------------------6------------4-5-6----------
-----------------------------------------------------------6-----------------


etc usw...mit diesem Schema spazierst du rum...musst nur selber rashoeren wann er im I-IV-V Pattern (Grundton, Quart, Quint, 99% aller Blues sind so aufgebaut) rumspringt.
 
Rojos
Rojos
Registrierter Benutzer
Zuletzt hier
23.03.09
Registriert
18.08.03
Beiträge
1.849
Kekse
616
Ort
Hannover
so richtig klasssich wäre ja auch ne walking bass- linie.

------------------------------------------
---------------------4---5--7------------
-------4--5--6--7-----------------------
---5--------------------------------------

und dann halt im passenden Grundton und im bluesschema, hier z-b.
A-D-E-
 
C
Chrischtoph
Registrierter Benutzer
Zuletzt hier
29.09.13
Registriert
04.12.03
Beiträge
217
Kekse
40
s. unten!!!! :oops: :oops: :oops: :D
 
C
Chrischtoph
Registrierter Benutzer
Zuletzt hier
29.09.13
Registriert
04.12.03
Beiträge
217
Kekse
40
Ich glaub damit komm ich hin! Klasse und Danke! :D
Dann aber gleich noch ne Frage! :D
Ist das hier typisch für swing? Muss ich was verändern oder wo kann ich das gebrauchen (Akkordreihenfolge die geeignet ist, Lage ist ja egal!!) :rolleyes:


[code:1]-------------5---------------5---------
---------5-7---7-5-------5-7---7-5----
-------7-----------7---7-----------7-8-
-----8---------------8------------------[/code:1]

[code:1]--5-------5-----------5------------
7---7---7---7-----5-7---7-5--------
-------8---------7-----------7-5---
--------------8---------------------[/code:1]

[code:1]---------------------5-5~------
-----5-----------5-7------------
-7-8---8-7-5---7---------------
-------------8----------------- [/code:1]
 

Ähnliche Themen


Neue Themen

Unser weiteres Online-Angebot:
Bassic.de · Deejayforum.de · Sequencer.de · Clavio.de · Guitarworld.de · Recording.de

Musiker-Board Logo
Oben