dschingis khan - moskau tab/chords

von tschornt, 13.12.06.

  1. tschornt

    tschornt Registrierter Benutzer

    Im Board seit:
    21.01.05
    Zuletzt hier:
    17.10.12
    Beiträge:
    63
    Zustimmungen:
    0
    Kekse:
    40
    Erstellt: 13.12.06   #1
    servus, hat einer von euch zufällig die chords/tab von dschingis khan - moskau zur Hand? oder weiß jemand wo es die gibt? danke im voraus.
    gruß tobias
     
  2. tschornt

    tschornt Threadersteller Registrierter Benutzer

    Im Board seit:
    21.01.05
    Zuletzt hier:
    17.10.12
    Beiträge:
    63
    Zustimmungen:
    0
    Kekse:
    40
    Erstellt: 13.12.06   #2
    suche verzweifelt nach chords für "moskau" von dschingis khan. im kultliederbuch 1 und/oder 2 sind die akkorde notiert. kann mir jemand die per email schicken, der das buch sein eigen nennt? thx im voraus
     
  3. AmericanIdiot91

    AmericanIdiot91 Registrierter Benutzer

    Im Board seit:
    11.12.05
    Zuletzt hier:
    29.09.11
    Beiträge:
    315
    Ort:
    Stuttgart
    Zustimmungen:
    0
    Kekse:
    20
    Erstellt: 13.12.06   #3
    bei mir sin die nicht drin!
     
  4. tschornt

    tschornt Threadersteller Registrierter Benutzer

    Im Board seit:
    21.01.05
    Zuletzt hier:
    17.10.12
    Beiträge:
    63
    Zustimmungen:
    0
    Kekse:
    40
    Erstellt: 13.12.06   #4
    welches der bücher hast du denn?
     
  5. Gíta

    Gíta Registrierter Benutzer

    Im Board seit:
    23.06.06
    Zuletzt hier:
    22.11.13
    Beiträge:
    22
    Zustimmungen:
    0
    Kekse:
    10
    Erstellt: 13.12.06   #5
    alrighty... da hätten wir in den strophen: Em, C, G, Am, Em, B7, Em (2x), in der bridge: Em, D, B7, Em (3x) Em, C, Am, B7 und im chorus: Em, C, G, Am, Em, Am, B, B7 (2x)

    geht das so? also die lyrics bekommst du ja sicher auch woanders her oder?:)
     
  6. Metus

    Metus Registrierter Benutzer

    Im Board seit:
    12.07.04
    Zuletzt hier:
    25.09.14
    Beiträge:
    557
    Zustimmungen:
    1
    Kekse:
    91
    Erstellt: 13.12.06   #6
    Die Kultliederbüchjer sind fast ein muss für jeden ambitionierten lagerfeuerklampfer ;)

    Die sind echt top, und echt sackebillig im vergleich dazu wieviele Songs man bekommt!
     
  7. Chrischtoph

    Chrischtoph Registrierter Benutzer

    Im Board seit:
    04.12.03
    Zuletzt hier:
    29.09.13
    Beiträge:
    219
    Zustimmungen:
    0
    Kekse:
    50
    Erstellt: 13.12.06   #7
    Da: ;)

    Code:
    Dschinghis Khan -  Moskau
    
    8Takte Intro
    
    Em            C                        G                Am                  Em               H7                    Em 
       Moskau ,   fremd und geheimnisvoll,   Türme aus rotem Gold ,  Kalt wie das Eis
    
    Em            C                          G                      Am                      Em                  H7             Em
       Moskau ,   doch wer dich wirklich kennt      der weiß, ein Feuer brennt ,  in dir so heiß
                    
    
    
                     D            H7                   Em                                              D        H7             Em
    Kosaken hey hey hey hebt die Gläser  (hey hey)        Natascha ha ha ha du bist schön   (ha ha)
                        D             H7                  Em                                        C                    Am               H7
    Tavarisch,   hey hey hey auf das Leben  (hey hey)    Auf Dein Wohl Bruder hey Bruder ho   
    
    hey hey hey hey
    
    Em                         C                       G                       Am                     Em                       Am        F#7          H7
    Moskau, Moskau, wirf die Gläser an die Wand      Rußland ist ein schönes Land     Ho ho ho ho ho, hey
    Em                          C                  G                           Am                         Em             H7                Em
    Moskau, Moskau,  deine Seele ist so groß            nachts da ist der Teufel los  Ha ha ha ha ha, hey
    Em                          C                                G             Am                           Em              Am      F#7          H7
    Moskau, Moskau , Liebe schmeckt wie Kaviar     Mädchen sind zum küssen da Ho ho ho ho ho, hey            Em                          C                            G                         Am                         Em                       H7                Em   D
    Moskau, Moskau,  Komm wir tanzen auf dem Tisch    bis der Tisch zusammenbricht Ha ha ha ha ha, hey
    
    
    Moskau ,  Tor zur Vergangenheit                Spiegel der Zarenzeit   rot wie das Blut
    Moskau ,  wer deine Seele kennt            der weiß, die Liebe brennt -   heiß wie die Glut
    
        
    Kosaken hey hey hey leert die Gläser  hey hey       Natascha ha ha ha du bist schön  ha ha
    
    Tawarisch,  hey hey hey auf die Liebe auf Dein Wohl Mädchen hey Mädchen ho  
    hey hey hey hey
    
    Moskau, Moskau , wirf die Gläser an die Wand     Rußland ist ein schönes Land  Ho ho ho ho ho, hey
     Moskau, Moskau,  deine Seele ist so groß      nachts da ist der Teufel los  Ha ha ha ha ha, hey
    Moskau  La la la la la la la, lala lala lala la                     Ho ho ho ho ho, hey
     Moskau  Lala lala lala la, lala lala lala la                       Ha ha ha ha ha
     
    
    
    
    Em      	C	Am	    H 
    Oh, oh oh oh oh, oh oh oh, oh oh oh oh      Moskau, Moskau
    
    
    
    Moskau, Moskau , Wodka trinkt man pur und kalt     das macht hundert Jahre alt  Ho ho ho ho  ho, hey
    Moskau, Moskau  Väterchen dein Glas ist leer           Doch im Keller ist noch mehr  Ha ha ha ha  ha !
     
            
    Kosaken hey hey hey hebt die Gläser  (hey hey   ) Natascha ha ha ha du bist schön   (ha ha)
    Tavarisch,   hey hey hey auf das Leben  (hey hey )    Auf Dein Wohl Bruder hey Bruder ho
                                                              
    hey hey hey hey
       
    
    
    Moskau, Moskau, wirf die Gläser an die Wand     Rußland ist ein schönes Land  Ho ho ho ho ho, hey
    Moskau, Moskau,  deine Seele ist so groß,        nachts da ist der Teufel los  Ha ha ha ha ha, hey
    Moskau, Moskau , Liebe schmeckt wie Kaviar    Mädchen sind zum küssen da Ho ho ho ho ho, hey
    Moskau, Moskau, wirf die Gläser an die Wand     Rußland ist ein schönes Land  Ho ho ho ho ho, hey
    Moskau, Moskau,  deine Seele ist so groß,           nachts da ist der Teufel los  Ha ha ha ha ha, hey
    Moskau, Moskau , Liebe schmeckt wie Kaviar       Mädchen sind zum küssen da
    
    
     Ho ho ho ho ho, hey
    Joar... die sind bissl verschoben *sry* Aber die Akkorde stimmen. Zumindest von der Reihenfolge. Hoffe geholfen zu haben (sorry, bin bisschen unmotoviert gewesen das jetzt passend umzuschreiben. Hoffe das geht trotzdem in Ordnung)
     
  8. tschornt

    tschornt Threadersteller Registrierter Benutzer

    Im Board seit:
    21.01.05
    Zuletzt hier:
    17.10.12
    Beiträge:
    63
    Zustimmungen:
    0
    Kekse:
    40
    Erstellt: 14.12.06   #8
    moin,
    danke erstmal für die vielen hilfreichen antworten. intro chords sind : | E | D |
    das orginal ist im übrigen 1 HT höher, was mir aber dank dem amazing slow downer keine probleme macht. habt ihr zufällig die chords/tabs zu viva colonia? sind grade dabei ein kleines fastnachts-set aufzubauen...
     
  9. Chrischtoph

    Chrischtoph Registrierter Benutzer

    Im Board seit:
    04.12.03
    Zuletzt hier:
    29.09.13
    Beiträge:
    219
    Zustimmungen:
    0
    Kekse:
    50
    Erstellt: 14.12.06   #9
    Mach mal das Intro mit Em und Am ;)

    Viva Colonia (das kostet aber langsam :D ;) ):
    Ich weiß nicht woher ich die Akkorde habe, aber selbst rausgehört habe ich die glaub ich nicht. Von daher möchte ich mal sagen, dass ich für die Korrektheit nicht garantiere :D ;)
    Aber müsste schon so um den Dreh hinhauen :rolleyes: ;) Bis auf die Bridge und jeweils kurz vorm Refrain (bei "mir sin in jeder hinsich aktuell -auch sexuell" z.B.) zumindestens. Da spiele ich immer irgendwas anderes. Frag mich aber nich was^^ Das kommt immer spontan :D ;)
     
  10. tschornt

    tschornt Threadersteller Registrierter Benutzer

    Im Board seit:
    21.01.05
    Zuletzt hier:
    17.10.12
    Beiträge:
    63
    Zustimmungen:
    0
    Kekse:
    40
    Erstellt: 14.12.06   #10
    @chrischtoph: danke nochmals für die chords/text. als grundlage schon ganz gut. muss ich aber in ruhe nochmal drüber schauen. kann ich dir auch mal helfen?

    hat jemand die melodie am anfang schon getabt?
     
  11. tschornt

    tschornt Threadersteller Registrierter Benutzer

    Im Board seit:
    21.01.05
    Zuletzt hier:
    17.10.12
    Beiträge:
    63
    Zustimmungen:
    0
    Kekse:
    40
    Erstellt: 16.12.06   #11
    Intro Viva Colonia, Fingersatz und Lage OK . Viel Spaß damit

    e---------------------------------------------------------------------------------------------------------------------------------------------
    H-----------------------------------12------------------------------------------------------------12---12-----------------------------------
    G----------12---12---12----14---------14----------------------------12----12---12----14-----------------14---12----14---------------
    D-----12--------------------------------------12---12----------12-------------------------------------------------------------------------
    A--------------------------------------------------------------------------------------------------------------------------------------------
    E---------------------------------------------------------------------------------------------------------------------------------------------


    e-----------------------------------------------------------12-------------12----------------------------------------------------------------
    H-----------------------------------12---12--13----15-------------------------15----12----------------------------------------------------
    G----------12---12---12----14--------------------------------------------------------------12----14----11------------12-----------------
    D-----12----------------------------------------------------------------------------------------------------------12------------------------
    A--------------------------------------------------------------------------------------------------------------------------------------------
    E---------------------------------------------------------------------------------------------------------------------------------------------
     
  12. Chrischtoph

    Chrischtoph Registrierter Benutzer

    Im Board seit:
    04.12.03
    Zuletzt hier:
    29.09.13
    Beiträge:
    219
    Zustimmungen:
    0
    Kekse:
    50
    Erstellt: 17.12.06   #12
    Ehrensache ;)

    Deine Tabs zum Intro find ich aber persönlich nicht so ansprechend. Willst du das nicht runter oktavieren?

    Ich hätte das so vorgeschlagen:

    e--------------------------------------------------------------------------------------------------------------------
    H-------------------------------------------------------------------------------------------------------------------
    G----7----7-7-7--------------------4-------------------------------4-4-------------------------------------------
    D--------------------5----5----5-7----7--------------5----5---5-7-----7-5--7-----------------------------------
    A-------------------------------------------5--5-------------------------------------------------------------------
    E-------------------------------------------------------------------------------------------------------------------

    e--------------------------------------------------------------------------------------------------------------------
    H------------------------------5----5-------------------------------------------------------------------------------
    G-----------------4---5---7-----------7--5--4--5--4---------------------------------------------------------------
    D----5---5---5-7--------------------------------------7--5---------------------------------------------------------
    A--------------------------------------------------------------------------------------------------------------------
    E--------------------------------------------------------------------------------------------------------------------

    Das ganze mit dem 1.Finger auf dem 4ten Bund (darf man das überhaupt :D :screwy: ;) )....
    Joar, ich find das läuft und klingt recht gut (oookay, der letzte Takt ist vielleicht nicht ganz Original-like. Aber dat hört doch keiner :rolleyes: :D )
     
  13. Ibanez RG 2550

    Ibanez RG 2550 Registrierter Benutzer

    Im Board seit:
    21.12.06
    Zuletzt hier:
    6.03.07
    Beiträge:
    9
    Ort:
    Menden
    Zustimmungen:
    0
    Kekse:
    10
    Erstellt: 06.03.07   #13
    kann jemand die Zerlegung am anfang von Moskau ? ich krieg die nich hin ^^

    MFG
     
  14. tobin

    tobin Registrierter Benutzer

    Im Board seit:
    14.05.05
    Zuletzt hier:
    7.03.09
    Beiträge:
    80
    Zustimmungen:
    0
    Kekse:
    39
    Erstellt: 23.02.08   #14
    E||-----7-----7-----7-----7---||------5-----5-----5-----5---||
    B||--------8-----7------------||---------8-----7-----5------||
    G||--------------------9-----*||*--------------------------*||
    D||--------------------------*||*--------------------------*||
    A||--7------------------------||---5------------------------||
    E||---------------------------||----------------------------||


    ?
     
Die Seite wird geladen...

mapping