El Cattivo Solo Die Ärzte 15 Jahre Netto

von yoman, 26.06.08.

  1. yoman

    yoman Registrierter Benutzer

    Im Board seit:
    21.06.08
    Zuletzt hier:
    22.01.10
    Beiträge:
    8
    Zustimmungen:
    0
    Kekse:
    10
    Erstellt: 26.06.08   #1
  2. grillstern

    grillstern Registrierter Benutzer

    Im Board seit:
    19.10.05
    Zuletzt hier:
    29.11.16
    Beiträge:
    103
    Ort:
    Aschaffenburg
    Zustimmungen:
    0
    Kekse:
    121
    Erstellt: 27.06.08   #2
    Ist zwar nicht 100% das richtige Solo aber für den Anfang sollte es passen (gefunden im Netz). Die 2. Solohälfte ist ja eigentlich genau das Selbe wie der 1. Teil, halt nur 2 Oktaven höher:

    Code:
    --------------------------------------------------5------------------
    --------------------------------------------------5------------------
    --------------------------------------------------6------------------
    --2-0-2--------0---2-4-2-0------------------------7------------------
    -----------2---------------2---0---0-----------0--7------------------
    ---------------------------------3------0--0-3----5------------------
    
    
    --------------------------------------------------0------------------
    --------------------------------------------------0------------------
    --------------------------------------------------0------------------
    --2-0-2--------0---2-4-2-0------------------------2------------------
    -----------2---------------2---2-2-2-2-0-2---2----2------------------
    -------------------------------------------3---0--0------------------
    
    
    --12-10-12--------10--12-14-12-10------------------------------5-----
    -------------12-------------------12---10----10------------10--5-----
    ------------------------------------------12------9--9-12------6-----
    ---------------------------------------------------------------7-----
    ---------------------------------------------------------------7-----
    ---------------------------------------------------------------5-----
    
    
    --12-10-12--------10--12-14-12-10---------------------------------0--
    -------------12-------------------12---12-12-12-12-10-12----10----0--
    ---------------------------------------------------------12----9--0--
    ------------------------------------------------------------------2--
    ------------------------------------------------------------------2--
    ------------------------------------------------------------------0--
     
  3. yoman

    yoman Threadersteller Registrierter Benutzer

    Im Board seit:
    21.06.08
    Zuletzt hier:
    22.01.10
    Beiträge:
    8
    Zustimmungen:
    0
    Kekse:
    10
    Erstellt: 28.06.08   #3
    Die Tabs sind mir auch schon bekannt... trotzdem danke :-)
     
Die Seite wird geladen...

mapping