ffaf:this years most open heartbreak,wie greifen?

von el hefe, 28.06.05.

  1. el hefe

    el hefe Registrierter Benutzer

    Im Board seit:
    09.11.04
    Zuletzt hier:
    5.12.11
    Beiträge:
    156
    Ort:
    uelsen (grafschaft bentheim)
    Zustimmungen:
    0
    Kekse:
    10
    Erstellt: 28.06.05   #1
    Verse (Guitar 1) x4
    Eb|---------------------------------------------------------|
    Bb|---------------------------------------------------------|
    Gb|---------------------------------------------------------|
    Db|-1p0-0-0-1-0-1-0-1p0-0-0-2-2-0-0-2-2-0-0-----3---3h5-----|
    Ab|-1p0-0-0-1-0-1-0-1p0-0-0-2-2-0-0-2-2-0-0-1h3---3-----3h5-|
    Db|-1p0-0-0-1-0-1-0-1p0-0-0-2-2-0-0-2-2-0-0-----------------|
    PM ... . . ... ... ...

    Verse (Guitar 2) x4
    Eb|---------------------------------------------------------|
    Bb|---------------------------------------------------------|
    Gb|---------------------------------------------------------|
    Db|-1p0-0-0-1-0-1-0-1p0-0-0-2-2-0-0-2-2-0-0-----7---7h8-----|
    Ab|-1p0-0-0-1-0-1-0-1p0-0-0-2-2-0-0-2-2-0-0-5h8---8-----7h8-|
    Db|-1p0-0-0-1-0-1-0-1p0-0-0-2-2-0-0-2-2-0-0-----------------|
    PM ... . . ... ... ...

    Pre-Chorus Part 1 (Guitar 2) x1
    Eb|------------------------------------------------------------------------------|
    Bb|------------------------------------------------------------------------------|
    Gb|-----10---9--------12---10---9---------------10-9------------------12-10-9----|
    Db|--------------10-----------------10-000-10-0------10-8-------10------------10-|
    Ab|------------------------------------------------------------------------------|
    Db|-8-8----8---8----8----8----8---8-----------------------10-10----10------------|
    PM ... . . . . . . ... . ..... ..

    hi!ich wollt mal wissen wie man bei dem verse guitar 1 den letzten teil in dem takt spielt und ebenso bei dem verse guitar 2 den letzten teil.außerdem wollt ich wissen wie man den pre-chorus spielt.ich krieg das wohl hin das zu spielen aber ich wollt von euch wissen wie die grifftechnik geht weil man diese drei teile sau schnell spielen muss. wer das lied kennt weiß was ich meine (funeral for a friend:this years most open heartbreak),ich bedanke mich...
     
  2. el hefe

    el hefe Threadersteller Registrierter Benutzer

    Im Board seit:
    09.11.04
    Zuletzt hier:
    5.12.11
    Beiträge:
    156
    Ort:
    uelsen (grafschaft bentheim)
    Zustimmungen:
    0
    Kekse:
    10
    Erstellt: 28.06.05   #2
    hallo?? bitte,ich will das richtig spielen... :o
    ihr habt doch die ahnung
     
  3. el hefe

    el hefe Threadersteller Registrierter Benutzer

    Im Board seit:
    09.11.04
    Zuletzt hier:
    5.12.11
    Beiträge:
    156
    Ort:
    uelsen (grafschaft bentheim)
    Zustimmungen:
    0
    Kekse:
    10
    Erstellt: 28.06.05   #3
  4. 123

    123 Registrierter Benutzer

    Im Board seit:
    12.04.04
    Zuletzt hier:
    21.09.13
    Beiträge:
    415
    Zustimmungen:
    1
    Kekse:
    115
    Erstellt: 28.06.05   #4
    Wo ist der Link?

    Verse guitar 1:
    Zeigfinger-Ringfinger, dann in den dritten Bund mit dem Zeigefinger, dort die 3 und 3 spielen und dann wieder zweimal Zeigefinger-Ringfinger.
    Oder die 3 mit dem Ringfinger spielen und dann erst wechseln, finde ich persönlich angenehmer

    Verse guitar 2:
    1. Möglichkeit: Zeigefinger-kleiner Finger, Ringfinger kleiner Finger, 2mal Ringfinger-kleiner Finger.
    Da das aber wahrscheinlich zu schwer ist: 2. Möglichkeit: Zeigefinger-kleiner Finger, die 7 mit dem Zeigefinger und die 8 mit dem Mittelfinger.

    Pre-Chorus:

    Die 8 und 10 auf der Db-Saite mit dem Daumen greifen oder auch mit dem Zeigfinger, der da auch verharren sollte.
    Die Restlichen: Wie es am angenehmsten ist.
     
Die Seite wird geladen...

mapping