Intro zu Aber bitte mit Sahne - Udo Jürgens

von Mandalay, 12.02.04.

  1. Mandalay

    Mandalay Registrierter Benutzer

    Im Board seit:
    23.10.03
    Zuletzt hier:
    28.04.07
    Beiträge:
    77
    Zustimmungen:
    0
    Kekse:
    10
    Erstellt: 12.02.04   #1
    Hi ich bräucht die Tabs oder akkorde zum Intro von Aber bitte mit Sahne von Udo Jürgens, es ist ziemlich dringend also alles was ihr findet hier rein
    Danke !!!!!!!!!!!
    Gruß Manda
     
  2. mdc

    mdc Registrierter Benutzer

    Im Board seit:
    02.02.04
    Zuletzt hier:
    27.02.13
    Beiträge:
    302
    Ort:
    Berlin
    Zustimmungen:
    0
    Kekse:
    192
    Erstellt: 12.02.04   #2
    Was die Leute so spielen wollen :rolleyes:

    Kann dir nich helfen...
     
  3. RAGMAN

    RAGMAN Mod Emeritus - Gitarren Ex-Moderator

    Im Board seit:
    19.08.03
    Zuletzt hier:
    31.08.13
    Beiträge:
    5.410
    Ort:
    zu Hause...
    Zustimmungen:
    12
    Kekse:
    2.538
    Erstellt: 12.02.04   #3
    [code:1]Aber bitte mit Sahne
    Griffe: G, D, C


    G
    Sie treffen sich täglich um viertel nach drei,
    C G
    o- ho - ho, - Oh yeah!
    G
    am Stammtisch, im Eck, in der Konditorei,
    C G
    o- ho - ho, - Oh yeah,
    C G
    und blasen zum Sturm auf das Kuchenbuffet,
    C D
    auf Schwarzwälder-Kirsch und auf Sahne-Baisers,
    G C
    auf Früchteeis, Ananas, Kirsch und Banane,
    D G
    - aber bitte mit Sahne! - Aber bitte mit Sahne!


    Sie schwatzen und schmatzen, dann holen sie sich
    o- ho - ho, - Oh yeah!
    noch Buttercremetorte und Bienenstich,
    o- ho - ho, - Oh yeah,
    Sie pusten und prusten, fast geht nichts mehr rein,
    nur ein Mohrenkopf höchstens, denn Ordnung muss sein!
    Bei Mathilde, Ottilie, Marie und Liliane,
    - aber bitte mit Sahne! - Aber bitte mit Sahne!

    Und das Ende vom Lied hat wohl jeder geahnt,
    o- ho - ho, - Oh yeah!
    Der Tod hat reihum sie dort abgesahnt,
    o- ho - ho, - Oh yeah!
    Die Hinterbliebenen fanden vor Schmerz keine Worte,
    mit Sacher,- und Linzer,- und Marzipantorte,
    hielt als letzte Liliane getreu noch zur Fahne,
    aber bitte mit Sahne! - Aber bitte mit Sahne!

    Doch auch mit Liliane war es schließlich vorbei,
    o- ho - ho, - Oh yeah!
    Sie kippte vom Stuhl in der Konditorei,
    o- ho- ho, - Oh yeah!
    Auf dem Sarg gab's statt Kränzen verzuckerte Torten
    und der Pfarrer begrub sie mit rührenden Worten:
    Dass der Herrgott den Weg in den Himmel ihr bahne,
    - aber bitte mit Sahne! - Aber bitte mit Sahne!

    Noch ein bisschen Kaffee? - Aber bitte mit Sahne!
    Noch ein kleines Baiser? - Aber bitte mit Sahne!

    (gespr.:) Oder soll's vielleicht doch'n Keks sein?
    - Aber bitte mit Sahne! [/code:1]
     
  4. RAGMAN

    RAGMAN Mod Emeritus - Gitarren Ex-Moderator

    Im Board seit:
    19.08.03
    Zuletzt hier:
    31.08.13
    Beiträge:
    5.410
    Ort:
    zu Hause...
    Zustimmungen:
    12
    Kekse:
    2.538
    Erstellt: 12.02.04   #4
    und die Version von SODOM:
    Intro

    [code:1]E -----------------------------------------------------------------
    B -9-7-------------------------------------------------------------
    G -----9---9-8-6---6---------------6--2----------------------------
    D -------------------9-7---6---------------/7--2-------------------
    A -----------------------------9---------------0-------------------
    E -----------------------------------------------------------------

    Riff 1

    E -----------------------------------------------------------------
    B -----------------------------------------------------------------
    G -----------------------------------------------------------------
    D -2-2-4-2-2-2-4-2-------------------------------------------------
    A -0-0-0-0-0-0-0-0-------------------------------------------------
    E -----------------------------------------------------------------

    Riff 2

    E -----------------------------------------------------------------
    B -------------------------------3---------------------------------
    G -------------------------------2---------------2-----------------
    D -2-----------------------------0---------------2-----------------
    A -0-0-0-0-0-0-0-0-0-0-0-0-0-0-0-----------------0--0-0-0-0-0-0-0--
    E -----------------------------------------------------------------

    Bridge

    E -----------------------------------------------------------------
    B -3------3------3-----------------------2------2------2-----------
    G -2------2------2----2------2------2----3------3------3-----------
    D -0-0000-0-0000-0-00-2------2------2----0-0000-0-0000-0-00--------
    A --------------------0-0000-0-0000-0-00---------------------------
    E -----------------------------------------------------------------

    E -----------------------------------------------------------------
    B -----------------------------------------------------------------
    G -----------------------------------------------------------------
    D -2-2-2-2-2-2-2-2-------------------------------------------------
    A -2-2-2-2-2-2-2-2-------------------------------------------------
    E -0-0-0-0-0-0-0-0-------------------------------------------------

    Chorus

    E -----------------------------------------------------------------
    B -----------------------------------------------------------------
    G ---------------------------------------------------------9-------
    D -2---------------2-----7---------7---------------7-7-7-8-9-------
    A -2---------------0-0-0-4-4-4-4-4-5-5-5-5-5-5-5-5-5-5-5-6-7-------
    E -0-0-0-0-0-0-0-0-------------------------------------------------[/code:1]
     
  5. FragMaster

    FragMaster Registrierter Benutzer

    Im Board seit:
    06.09.03
    Zuletzt hier:
    26.03.08
    Beiträge:
    23
    Zustimmungen:
    0
    Kekse:
    10
    Erstellt: 12.02.04   #5
    Lol, die Sodom Version is ja zuuuu geil, Danke!
     
  6. Headbanger666

    Headbanger666 Registrierter Benutzer

    Im Board seit:
    15.01.04
    Zuletzt hier:
    15.02.16
    Beiträge:
    109
    Zustimmungen:
    1
    Kekse:
    10
    Erstellt: 12.02.04   #6
    hach des lied weckt erinnerungen. mit meiner ersten band haben wir das auch gespielt. da waren wir so schlecht das wir uns um die anfangsmelodie net gekümmert haben weil des eh keiner raushören konnte :D
     
Die Seite wird geladen...

mapping