John Mayer - Slow Dancing In A Burning Room

von meckintosh, 29.01.07.

  1. meckintosh

    meckintosh Registrierter Benutzer

    Im Board seit:
    30.01.04
    Zuletzt hier:
    12.01.16
    Beiträge:
    2.733
    Ort:
    fast in Flensburg
    Zustimmungen:
    24
    Kekse:
    10.370
    Erstellt: 29.01.07   #1
    Oh mann, ich hab echt nen Tab zu dem Lied gefunden, aber wie spielt er das nur? Wenns denn überhaupt richtig ist... Ich brech mir hier die Finger!!!

    Intro

    e--------------------------------------------- -----------------------------------------
    b--------------------------------------------- -----------------------------------------
    g------9~------9----9-8---------4h6-4---4----- ------9~------9---9-8--------4h6-4---4---
    d-------------11---11-9-11-9----7---7---4h6--- -------------11--11-9-11-9---4---4---4---
    a---/11-----------------11-9----------7----- ---/11----------------11-9-----------7---
    e-----------9-------------------5-------0----- -----------9-----------------5-------0---


    Verse

    e------------------------------
    b----9-----------------5---5---
    g----9-------9----9----6---4---
    d---11-------9h11-9----7---6---
    a----x--9h11-----------x---7---
    e----9-----------------5---0---


    Chorus

    e---0-0-0-0-------------------
    b---7-7-7-7-----------9---5---
    g---8-9-8-9-----------9---6---
    d---9-9-9-9---(x2)----11--7---
    a---x-----------------x---x---
    e---7-----------------9---5---

    e---0-0-0-0----------------0---0-----------------------------
    b---7-7-7-7------------9---2---9-----------------------------
    g---8-9-8-9------------9---2---9----9-8--------4---4---4-----
    d---9-9-9-9---(x2)----11---4--11---11-9-11-9---4h6-4---4h6---
    a---x------------------x---x---x--------11-9-----------7-----
    e---7------------------9---2---9---------------5-------0-----


    Bridge: "Go cry about it.."

    e---0---0---0-0-0-0-0---0--- ---0---0---0-0-0-0-0---0--- ---0---0---0---0---
    b---9---9---7-7-7-7-7---2--- ---2---9---7-7-7-7-7---2--- ---9---9---7---2---
    g---9---9---8-9-8-9-8---2--- ---2---9---8-9-8-9-8---2--- ---9---9---8---2---
    d--11--11---9-9-9-9-7---4--- ---4--11---9-9-9-9-9---4--- --11--11---9---4---
    a---9---x---x-x-x-x-x---x--- ---x---x---x-x-x-x-x---x--- ---9---x---x---x---
    e-------9---7-7-7-7-7---2--- ---2---9---7-7-7-7-7---2--- -------9---7---2---

    e---------------------------------
    b----9----------------------------
    g----9---9-8--------4---4---4-----
    d---11--11-9-11-9---4h6-4---4h6---
    a----x-------11-9-----------7-----
    e----9--------------5-------0-----


    Outro

    e--------------------------------------- ---0--------------
    b----9--9----------------5---5---------- ---5---5----------
    g----9--9h11-9-----------6---4---------- ---6---4----------
    d---11-------9h11-9------7---6---(x6)--- ---7---6---(x4)---
    a----x------------9h11---x---7---------- ---x---7----------
    e----9-------------------5---0---------- ---5---0----------
     
  2. PietB

    PietB Registrierter Benutzer

    Im Board seit:
    24.10.05
    Beiträge:
    210
    Zustimmungen:
    0
    Kekse:
    16
    Erstellt: 29.01.07   #2
    Weiß nicht ganz genau wo dein Problem liegt.
    Hab mal drüber geguckt und würde dir - falls du das nicht eh schon machst- empfehlen dir anzugewöhnen die Barreeakkorde mit dem Daumen an der tiefen E-Saite zu spielen ... Dann kannst du die A-Saite auch mit dem Daumen dämpfen, und hast den kleinen Finger für Hammer-ons/Pull offs und Modifikationen der Akkorde frei.
    Ist ne Sache die bei Hendrix oft vorkommt, und John Mayer hat sich sicher bei ihm, SRV usw was abgeguckt :)
    Falls dein Problem woanders liegt, tuts mir leid ;)
    Piet
     
Die Seite wird geladen...

mapping