Aneurysm

von Jag-Stang, 29.12.04.

  1. Jag-Stang

    Jag-Stang Registrierter Benutzer

    Im Board seit:
    09.10.04
    Zuletzt hier:
    10.01.07
    Beiträge:
    498
    Ort:
    Schweiz
    Zustimmungen:
    0
    Kekse:
    59
    Erstellt: 29.12.04   #1
    hallo
    ich hab ein problem...beim chorus von aneurysm(nirvana)

    ich find überall nur diese tabs:
    e|---------------------------------------|
    B|---------------------------------------|
    G|---------------------------------------|
    D|-4-4--6--7---7-8---9-9-9--8--7-7-7-0---|
    A|-4-4--6--7---7-8---9-9-9--8--7-7-7-0---|
    E|-2-2--4--5---5-6---7-7-7--6--5-5-5-0---|


    aber wenn ich das so spiele klingt dass scheisse und überhaupt nicht richtig!!!
    hat jemand noch wirklich gute tabs von dem song???
    danke!!
     
  2. Jag-Stang

    Jag-Stang Threadersteller Registrierter Benutzer

    Im Board seit:
    09.10.04
    Zuletzt hier:
    10.01.07
    Beiträge:
    498
    Ort:
    Schweiz
    Zustimmungen:
    0
    Kekse:
    59
    Erstellt: 30.12.04   #2
    büdde :o
     
  3. Dizzy Reed

    Dizzy Reed Registrierter Benutzer

    Im Board seit:
    06.02.04
    Zuletzt hier:
    21.10.08
    Beiträge:
    472
    Zustimmungen:
    2
    Kekse:
    142
    Erstellt: 30.12.04   #3
    du erwartest an einem Werktag um Mitternacht innerhalb von 14 Minuten eine Antwort?
     
  4. Jag-Stang

    Jag-Stang Threadersteller Registrierter Benutzer

    Im Board seit:
    09.10.04
    Zuletzt hier:
    10.01.07
    Beiträge:
    498
    Ort:
    Schweiz
    Zustimmungen:
    0
    Kekse:
    59
    Erstellt: 30.12.04   #4
    naja weisst du ich hab ferien :p
    hast du keine gescheiten tabs?? :o
     
  5. Muehle

    Muehle Registrierter Benutzer

    Im Board seit:
    13.09.04
    Zuletzt hier:
    11.06.08
    Beiträge:
    128
    Zustimmungen:
    1
    Kekse:
    10
    Erstellt: 30.12.04   #5

    e|-----------------------------------|-----------------------------------|
    B|-----------------------------------|-----------------------------------|
    G|---------5-5-5-0--4-4-4-0--2-2-2-0-|---------5-5-5-0--4-4-4-0--2-2-2-0-|
    D|-4--4-0--5-5-5-0--4-4-4-0--2-2-2-0-|-4--4-0--5-5-5-0--4-4-4-0--2-2-2-0-|
    A|-4--4-0--3-3-3-0--2-2-2-0--0-0-0-0-|-4--4-0--3-3-3-0--2-2-2-0--0-0-0-0-|
    E|-2--2-0----------------------------|-2--2-0----------------------------|


    damit bin ich recht zufrieden


    e|--------------------------------------|
    B|--------------------------------------|
    G|--------------------------------------|
    D|-4-4--6--7--7-7-8---9-9--8--7-7-7-6---|
    A|-4-4--6--7--7-7-8---9-9--8--7-7-7-6---|
    E|-2-2--4--5--5-5-6---7-7--6--5-5-5-4---|

     
Die Seite wird geladen...

mapping