Greife ich richtig?

von BlackFire, 23.04.04.

  1. BlackFire

    BlackFire Registrierter Benutzer

    Im Board seit:
    03.04.04
    Zuletzt hier:
    8.03.07
    Beiträge:
    8
    Zustimmungen:
    0
    Kekse:
    10
    Erstellt: 23.04.04   #1
    Hi,

    spiele seit ca. 1 Monat A-Gitarre und wollte nur mal fragen wie ihr die folgenden Lieder spielen würdet:

    Geen Day: When I come around
    e:-----------------------------------------
    G:-----------------------------------------
    B:-------- 66- 6--88------------------------
    D:-44-4---66- 6--88-9----------------------
    A:-44-4---44- 4--66-9----------------------
    E:-22-2------------- 7----------------------

    Mit dem kleinen Finger drücke ich die beiden 4ten Bünde auf der A und D Saite runter und mit dem Zeigefinger den 2ten Bund auf der E Saite usw.

    Iron Maiden: Run to the Hills
    |----------------------------------------------------------|
    |----------------------------------------------------------|
    |-x-9--9---7----x-7--7---9-----x-5--5---7----x-0--0---2----|
    |-x-9--9---7----x-7--7---9-----x-5--5---7----x-0--0---2----|
    |----------------------------------------------------------|
    |----------------------------------------------------------|

    Hier drücke die beiden Bünden jeweils mit abwechselnd mit dem Mittelfinger und dem Zeigefinger runter.

    Sollte ich diese Songs besser anders greifen oder ist es so wie ich es mache vollkommen richtig?

    Ich Bedank mich im Vorraus
     
  2. Necro

    Necro Registrierter Benutzer

    Im Board seit:
    26.10.03
    Zuletzt hier:
    22.10.06
    Beiträge:
    170
    Zustimmungen:
    0
    Kekse:
    10
    Erstellt: 23.04.04   #2
    Die Powerchords kann man einfacher greiffen.

    Zeigfinger auf den 2. Bund(E)
    Rinffinger auf den 4. Bund(A)
    Kleiner Finger auf den 4. Bund(D)

    Oder du drückst anstatt mit dem kleinen Finger(so wie du es machst) mit dem Ringfinger.
     
  3. Comrade

    Comrade Registrierter Benutzer

    Im Board seit:
    19.02.04
    Zuletzt hier:
    4.01.14
    Beiträge:
    1.894
    Ort:
    Ingolstadt
    Zustimmungen:
    2
    Kekse:
    276
    Erstellt: 23.04.04   #3
    Ich kenn jemanden der Spiel Powerchords genauso wie er...und hats verdammt gut drauf.Irgendwie siehts auch cool aus.
    Aber trotzdem mal die oberen beiden Wege ausprobieren ,die stellen eher die Norm dar...
     
Die Seite wird geladen...

mapping