Johnny Cash - Personal Jesus. Probleme beim selber beibringen

von creeping_object, 13.08.10.

Sponsored by
pedaltrain
  1. creeping_object

    creeping_object Registrierter Benutzer

    Im Board seit:
    13.08.10
    Zuletzt hier:
    22.08.14
    Beiträge:
    3
    Kekse:
    10
    Erstellt: 13.08.10   #1
    Hallo Welt Hallo Forum,
    mein erster Beitrag im Musik-Board:

    Ich will mir seit geraumer Zeit Gitarre spielen selber beibringen, in dem ich mir tabs oder tutorial videos von stücken angucke, die ich gern lernen würde.
    Wie zB im Moment, Personal Jesus, in der Johnny Cash Version, haupsächlich mit Hilfe dieses Videos:
    http://www.youtube.com/watch?v=k5hwnjEm1nE

    Nun häng ich aber schon im ersten Part fest, da der Lehrer anscheinend ein paar Erläuterungen weglässt.
    Ich spiel bisher im Grunde das:
    E-----------------------
    B-----------------------
    G-----------------------
    D---------2------------2
    A-----------------------
    E---0-3-0--3-0-0-3-0-

    Jo, im Original Song, geht das ja ne ganze Zeit lang so, und wird immer wiederholt. Soweit so gut, nur fehlt mir irgendwie der Übergang, ein Teil dazwischen, der herr Videoersteller ungefähr bei 1:38 spielt.
    Es gibt zwar auch ein paar Tabs im Netz, aber die konnten mir das bisher auch nicht nahe bringen, wahrscheinlich, weil das Lied auch rhytmisch nicht so ganz leicht darzustellen ist.

    hoffe hier kann mir wer helfen,
    danke,
    Marcel
     
  2. Nucksin

    Nucksin Registrierter Benutzer

    Im Board seit:
    15.12.06
    Zuletzt hier:
    26.07.19
    Beiträge:
    130
    Kekse:
    283
    Erstellt: 13.08.10   #2
    Hi c_o

    in meinen Augen macht man da einfach ne kleine Pause. Wenn man will kann man auch einen kleinen Schlag auf die die gedaempften Saiten einstreuen. Das haelt den Groove.

    Das Singen dazu ist dann noch einmal ne Portion schwieriger, aber das schaffst du schon!!!

    mfg Nuxxin
     
  3. BenChnobli

    BenChnobli Mod Emeritus Ex-Moderator HFU

    Im Board seit:
    27.09.06
    Beiträge:
    13.293
    Kekse:
    73.084
    Erstellt: 13.08.10   #3
    Hallo creeping_object, willkommen im forum!

    Bei 1:38 sehe ich auch nichts. Oder meinst du die stelle, wo er den turnaround über A, G, D und wieder zurück nach E macht?

    Ungefähr so:
    Code:
    e ----------2-2----------
    h ----------2-3----------
    g 2-----2---0-2----------
    D 2---------0-0-2-----2--
    A 0-3-0---0-2-0-2--------
    E ----------3-2-0-3-0---- etc. etc.
      A         G D E
    Gruss, Ben
     
  4. creeping_object

    creeping_object Threadersteller Registrierter Benutzer

    Im Board seit:
    13.08.10
    Zuletzt hier:
    22.08.14
    Beiträge:
    3
    Kekse:
    10
    Erstellt: 13.08.10   #4
    jep, ich glaub turnaround, dass ist das was ich meine, um wie schon gesagt den groove zu erhalten ^^ bei mir klingt das halt noch nach langweiliger endlosschleife. ich probiers ma mit deinen tabs. danke

    edit: achso ne, dass ist es doch nicht, dass is noch bevor man von e auf a wechselt. mhm, ich guck mir das nochmal genau an...
     
  5. max_vie

    max_vie Registrierter Benutzer

    Im Board seit:
    23.03.10
    Zuletzt hier:
    3.06.15
    Beiträge:
    30
    Kekse:
    21
    Erstellt: 16.08.10   #5
    Hab die nachstehenden Tabs auf meinem PC noch rumliegen gehabt - vlt. kannst du damit etwas anfangen:

    Main riff: You're own....
    E----------------------
    B----------------------
    G----------------------
    D---------2---2-2-----2
    A----------------------
    E---0-3-0-0-3-0-0-3-0-0


    ...someone who cares
    E----------------------------
    B----------------3-3-3--3-3-3
    G----------------0-0-0--0-0-0
    D--------2---2---------------
    A--0-3-0---3-----------------

    ...flesh and bone..."
    E---3--3--3--3---2--2--2--2
    B---3--3--3--3---3--3--3--3
    G---0--0--0--0---2--2--2--2
    D---0--0--0--0---0--0--0--0
    A---2--2--2--2-------------

    "...lift up the receiver..."
    E---0-0-0---0--0------------
    B---1-1-1---0--0------------
    G---2-2-2---0--0------------
    D----------------------2---2
    A-0-------2---3-------------
    E-----------------0-3-0--3--


    "...Reach out and...."
    E--0-0-0---0-0-0-------------
    B--2-2-2---1-1-1-------------
    G--3-3-3---2-2-2-------------
    D--4-4-4---3-3-3-------------
    A--4-4-4---3-3-3--------2---2
    E-----------------0-3-0---0--
     
mapping