Pascow-tabs

  • Ersteller Alice_im_wunderl
  • Erstellt am
Alice_im_wunderl
Alice_im_wunderl
Registrierter Benutzer
Zuletzt hier
21.01.06
Registriert
06.04.05
Beiträge
38
Kekse
0
Ort
Gronig
moin moin!
kann mir bitte jemand sagen woher ich die tabs von trampen nach norden von pascow bekommen kann?wäre nett wenn ihr mir helfen könntet
mfg alice
 
Eigenschaft
 
Alice_im_wunderl
Alice_im_wunderl
Registrierter Benutzer
Zuletzt hier
21.01.06
Registriert
06.04.05
Beiträge
38
Kekse
0
Ort
Gronig
hey jungs kann mir keiner helfen?das lied könnt ihr euch auch auf der seite www.pascow.de anhören.bitte helft mir
 
S
SG-Rocker
Registrierter Benutzer
Zuletzt hier
08.03.15
Registriert
15.10.07
Beiträge
63
Kekse
0
Hat irgendjemand irgendeinen Pascow Tab? :rolleyes:
 
C
checkbutton
Registrierter Benutzer
Zuletzt hier
25.05.08
Registriert
03.10.06
Beiträge
1
Kekse
0
Sicher nicht komplett richtig, aber die Akkorde stimmen. Den Rest hörst du ja.

Code:
Pascow - Trampen nach Norden Intro


     E  E  E  E  E    E   Q       E  E  E  E  E   E  Q     
E||----------------------------|--------------------------|
B||----------------------------|--------------------------|
G||-----------8--8s--11--11----|-----------3--3s--6--6----|
D||--9--9--9-------------------|--4--4--4-----------------|
A||-----------6--6s---9---9----|-----------1--1s--4--4----|
E||--7--7--7-------------------|--2--2--2-----------------|


  Q    E  E  Q    E  E      E   E  E   E  E   E  E  E   
------------------------|------------------------------|
------------------------|------------------------------|
-------8--9--8----8--9--|--11s--9--9s--8--8s--9--9-----|
--6---------------------|------------------------------|
-------6--7--6----6--7--|---9s--7--7s--6--6s--7--7-----|
--4---------------------|------------------------------|


  E  E  E  E  E    E   Q       E  E  E  E  E   E  Q     
----------------------------|--------------------------|
----------------------------|--------------------------|
-----------8--8s--11--11----|-----------3--3s--6--6----|
--9--9--9-------------------|--4--4--4-----------------|
-----------6--6s---9---9----|-----------1--1s--4--4----|
--7--7--7-------------------|--2--2--2-----------------|


  Q    E  E  Q    E  E      E   E  E    E   E  Q.       
------------------------|-----------------------------||
------------------------|-----------------------------||
-------8--9--8----8--9--|--11s--9--9s--11--11---------||
--6---------------------|-----------------------------||
-------6--7--6----6--7--|---9s--7--7s---9---9---------||
--4---------------------|-----------------------------||




Duration Legend
---------------
W - whole
H - half
Q - quarter
E - 8th
S - 16th
T - 32nd
X - 64th
. - note dotted
|-n-|  - n-tuplets


Tablature Legend
----------------
L - tied note
x - dead note
g - grace note
(n) - ghost note
> - accentuded note
NH - natural harmonic
AH - artificial harmonic
TH - tapped harmonic
SH - semi harmonic
PH - pitch harmonic
h - hammer on
p - pull off
b - bend
br - bendRelease
pb - preBend
pbr - preBendRelease
brb - bendReleaseBend
\n/ - tremolo bar dip
\n - tremolo bar dive
-/n - tremolo bar Release up
/n\ - tremolo bar inverted dip
/n - tremolo bar return
-\n - tremolo bar Release down
S - shift slide
s - legato slide
/ -  slide into from below or out of upwards
\ -  slide into from above or out of downwards
~ - vibrato
W - wide vibrato
tr - trill
TP - tremolo picking
T - tapping
S - slap
P - pop
< - fade in
^ - brush up
v - brush down
 

Ähnliche Themen


Neue Themen

Unser weiteres Online-Angebot:
Bassic.de · Deejayforum.de · Sequencer.de · Clavio.de · Guitarworld.de · Recording.de

Musiker-Board Logo
Oben