Rammstein - Seeman (letzter durchlauf Live DVD)

von luckyluke, 10.08.06.

  1. luckyluke

    luckyluke Registrierter Benutzer

    Im Board seit:
    29.11.05
    Zuletzt hier:
    1.03.15
    Beiträge:
    353
    Ort:
    Merzig (Saarland)
    Zustimmungen:
    2
    Kekse:
    424
    Erstellt: 10.08.06   #1
    hi jungs,
    ich wollte mal fragen ob jemand weiß was der olli da im letzten durchlauf auf der Live in Berlin DVD an variationen in das riff miteinbringt. ich glaub ich hab mir das jetzt schon 30 mal angeschaut, aber ich werd da einfach nicht schlau draus.

    wär schön wenn mir jemand grad das tab geben würde.

    Danke schon mal

    Gruß´Luke
     
  2. Ryknow

    Ryknow Registrierter Benutzer

    Im Board seit:
    18.01.06
    Zuletzt hier:
    18.08.15
    Beiträge:
    4.640
    Ort:
    Zuhause
    Zustimmungen:
    730
    Kekse:
    10.700
    Erstellt: 10.08.06   #2
    google.....da gibbet das

    :
    G:|----14-----16-----18-----13----|
    D:|--14--14-14--14-14--14-14--14--|
    A:|-0------0------0------0------0-|
    E:|-------------------------------|

    Also Different here
    G:|----11-----11-----13-----11---|
    D:|--11--11-11--11-11--11-11--11-|
    A:|-9------9------9------9-------|
    E:|------------------------------|

    G:|----14-----13-----11-----9--|
    D:|--11--11-11--11-11--11-11-11|
    A:|-0------0------0------0-----|
    E:|----------------------------|

    G:|------------------------------------------|
    D:|----11-----9-----11-----11------11-----11-|
    A:|--11--11-11-11-11--11-11---11-11-----11---|
    E:|-9------9-----9------9-------9------9-----|
     
  3. luckyluke

    luckyluke Threadersteller Registrierter Benutzer

    Im Board seit:
    29.11.05
    Zuletzt hier:
    1.03.15
    Beiträge:
    353
    Ort:
    Merzig (Saarland)
    Zustimmungen:
    2
    Kekse:
    424
    Erstellt: 10.08.06   #3
    vielen dank hast mir weitergeholfen,
    hab aber auch bei google nix gefunden.
     
  4. Ryknow

    Ryknow Registrierter Benutzer

    Im Board seit:
    18.01.06
    Zuletzt hier:
    18.08.15
    Beiträge:
    4.640
    Ort:
    Zuhause
    Zustimmungen:
    730
    Kekse:
    10.700
    Erstellt: 10.08.06   #4
    ehrlich nich? hmm
    das obere hab ich auch bloss von meiner platte *nein nicht glatze...HD*
    weis nich obs richtig ist...aber ich habs damals bei google gefunden
     
Die Seite wird geladen...

mapping