richtiger Riff Raff Tab von ACDC???

  • Ersteller Binford
  • Erstellt am
Binford
Binford
Registrierter Benutzer
Zuletzt hier
19.07.05
Registriert
15.05.05
Beiträge
19
Kekse
0
Hallo bin Anfänger und suche nen richtigen Tab von dem Lied "RIFF RAFF" von AC/DC...
Hab hier die SUFU schon benutzt und nix gefunden und hab auch bereits mehrer verschiedene TAbs gefunden wovon sich allerdings keiner, von meiner Sicht her, richtig anhört...
 
Eigenschaft
 
TheColaKid
TheColaKid
Registrierter Benutzer
Zuletzt hier
19.08.10
Registriert
22.03.05
Beiträge
169
Kekse
84
Ort
Abensberg
Vielleicht postest du mal die Tabs, die du gefunden hast und dann kann ich dir ja sagen, wo inwieweit die falsch sind!
 
Binford
Binford
Registrierter Benutzer
Zuletzt hier
19.07.05
Registriert
15.05.05
Beiträge
19
Kekse
0
Hier bei dem Tab von der Ultimate Guitare Seite z.B. Version 1 ist glaub ich das Intro falsch der rest hört sich recht in ordnung an...

Das ist das Intro:


E|-------------------|----------------------|-------------------|
B|-------------------|----------------------|-------------------|
G|--------------7----|--7----7----7----7----|--7----------------|
D|--------------4----|--5----4----5----4----|--5----------------|
A|--------------0----|--0----0----0----0----|--0----------------|
E|-------------------|----------------------|-------------------|

|-------------------|----------------------|-------------------|
|-------------------|----------------------|-------------------|
|--------------7----|--7----7----7----7----|------------2------|
|--------------4----|--5----4----5----4----|------------2------|
|--------------0----|--0----0----0----0----|------------0------|
|-------------------|----------------------|-------------------|
 
TheColaKid
TheColaKid
Registrierter Benutzer
Zuletzt hier
19.08.10
Registriert
22.03.05
Beiträge
169
Kekse
84
Ort
Abensberg
Nein, stimmt halbwegs. Angus spielt noch diverse mal das a (Leersaite), aber das solltest du ansich mit der Aufnahme hinbekommen.
 
patrice
patrice
Registrierter Benutzer
Zuletzt hier
25.09.07
Registriert
26.12.04
Beiträge
865
Kekse
378
Ort
Melchnau (CH)
Hallo Binford,

ich habe dir das soweit korrekte Intro von Riff Raff im Anhang angehängt.

Patrice
 

Anhänge

  • riff raff.JPG
    riff raff.JPG
    42,8 KB · Aufrufe: 142

Ähnliche Themen


Neue Themen

Unser weiteres Online-Angebot:
Bassic.de · Deejayforum.de · Sequencer.de · Clavio.de · Guitarworld.de · Recording.de

Musiker-Board Logo
Oben