Rory Gallagher - The Loop


d0mIn0
d0mIn0
Registrierter Benutzer
Zuletzt hier
18.05.22
Registriert
20.01.06
Beiträge
314
Kekse
149
Ort
Hannover
Hat hier jemand ein Guitar Pro Tab von dem oben genannten Lied? Vielleicht ist einer von euch auch so nett und hört das raus, krieg ich irgendwie nicht hin...

Danke schonmal im voraus!!
 
Eigenschaft
 
d0mIn0
d0mIn0
Registrierter Benutzer
Zuletzt hier
18.05.22
Registriert
20.01.06
Beiträge
314
Kekse
149
Ort
Hannover
push......
 
d0mIn0
d0mIn0
Registrierter Benutzer
Zuletzt hier
18.05.22
Registriert
20.01.06
Beiträge
314
Kekse
149
Ort
Hannover
weiß es niemand bescheid.......? :(
 
Canon1
Canon1
Registrierter Benutzer
Zuletzt hier
03.10.22
Registriert
18.02.05
Beiträge
465
Kekse
434
Tut mir leid, habe leider dieses Lied auch nicht gefunden ...
 
d0mIn0
d0mIn0
Registrierter Benutzer
Zuletzt hier
18.05.22
Registriert
20.01.06
Beiträge
314
Kekse
149
Ort
Hannover
bringt mir leider auch nich viel, trotzdem danke für dein interesse. weiß niemand bescheid? :(
 
Rock'n'Roll Rudi
Rock'n'Roll Rudi
Registrierter Benutzer
Zuletzt hier
09.04.22
Registriert
28.03.06
Beiträge
100
Kekse
126
pushing to the limit! :D
 
d0mIn0
d0mIn0
Registrierter Benutzer
Zuletzt hier
18.05.22
Registriert
20.01.06
Beiträge
314
Kekse
149
Ort
Hannover
Weiß vll jetzt jemand Bescheid?
 
N
.nOx
Registrierter Benutzer
Zuletzt hier
01.08.17
Registriert
20.08.06
Beiträge
1.045
Kekse
511
Ort
Hagen
Ot: OMG lang lang ist es her :D
 
d0mIn0
d0mIn0
Registrierter Benutzer
Zuletzt hier
18.05.22
Registriert
20.01.06
Beiträge
314
Kekse
149
Ort
Hannover
Ja, und ich hab immer noch keine Antwort erhalten und wollte nochmal nachfragen ob inzwischen jemand etwas dazu hat.....aber offensichtlich wohl nicht :(
 
Winharda
Winharda
Registrierter Benutzer
Zuletzt hier
03.04.17
Registriert
12.09.03
Beiträge
122
Kekse
161
Ich hab das mal mit meinem Lehrer gemacht... vielleicht finde ich noch irgend was drüber... aber mit nem Tab kann ich nicht dienen!:redface: Bei den Soli haben wir aber immer selber Imprvisiert, nur das Thema hab ich mit ihm gemacht!
 
Winharda
Winharda
Registrierter Benutzer
Zuletzt hier
03.04.17
Registriert
12.09.03
Beiträge
122
Kekse
161
Ich hab mal geschaut... also aufgeschrieben hat er mir nix:( aber wenn ichs bei youtube mal anhör fällts mir vielleicht wieder ein wies geht... nur is youtube im moment tot???
 
Winharda
Winharda
Registrierter Benutzer
Zuletzt hier
03.04.17
Registriert
12.09.03
Beiträge
122
Kekse
161
Das müsste es sein:

Riff1:
----------------------------------------------
----------10---------------------------------
-----/9-------9-8-7-/-5-------5-5-5~~----
---------------------------7-5---------------
----------------------------------------------
----------------------------------------------
Riff2:
----------8----------------------------------
----/10------10-9-8-/-6--------6-6-6~~--
----------------------------7-5--------------
----------------------------------------------
----------------------------------------------
----------------------------------------------
Riff3:
--------10--------------------------8-----------------------
---/12-----12-11-10-/8~---/10-------10-9-8-/-6~~----
-------------------------------------------------------------
-------------------------------------------------------------
-------------------------------------------------------------
-------------------------------------------------------------

Ich denke daraus kann man sichs dann zusammenbasteln... Viel Erfolg!
Den zwischenteil poste ich, wenns das da drauf hast:)
 
Winharda
Winharda
Registrierter Benutzer
Zuletzt hier
03.04.17
Registriert
12.09.03
Beiträge
122
Kekse
161
So und hier der Zwischenteil! Im viedeo wird der aber etwas anders gespielt!

Riff1:
---------8-10-b-11-----8-------------
--8-10----------------------10-8-----
----------------------------------------
----------------------------------------
----------------------------------------
----------------------------------------
Riff2:
---------8-10-b-12-----8-------------
--8-10----------------------10-8-----
----------------------------------------
----------------------------------------
----------------------------------------
----------------------------------------
Riff3:
----------------------------------------
----7-7-7-7-7-7-8--------------------
----------------------------------------
----4-4-4-4-4-4-5--------------------
----------------------------------------
----------------------------------------
 
d0mIn0
d0mIn0
Registrierter Benutzer
Zuletzt hier
18.05.22
Registriert
20.01.06
Beiträge
314
Kekse
149
Ort
Hannover
Fett, vielen vielen Dank. Echt super von dir.

Hast du das rausgehört oder wie hast du das gemacht?
 
Winharda
Winharda
Registrierter Benutzer
Zuletzt hier
03.04.17
Registriert
12.09.03
Beiträge
122
Kekse
161
keine ursache, habs mit meinem Lehrer gemacht gehabt, und als ich das lied wieder im ohr hatte, is es mir dann auch wieder eingefallen... zum spielen net sooo schwierig, nur bei dem tempo verhaut man sich schnell! Viel spass damit...
 

Ähnliche Themen


Unser weiteres Online-Angebot:
Bassic.de · Deejayforum.de · Sequencer.de · Clavio.de · Guitarworld.de · Recording.de

Musiker-Board Logo
Oben