Schandmaul - Feuertanz heraushören

  • Ersteller xahsoij
  • Erstellt am
xahsoij
xahsoij
Registrierter Benutzer
Zuletzt hier
07.12.22
Registriert
16.09.08
Beiträge
246
Kekse
161
Hallo,

Versuche immoment von Schandmaul den Bass für das Lied Feuertanz herauszuhören. Da ich zu faul bin immer den Bass bei vielen Stücken herauszuhören und mir immer fertige Tabs hole, hab ich jetzt das Problem das es mir sehr schwer fällt :( Habe den Anfangsteil und den Teil danach mal versucht rauszuhören, nur weiß ich nicht ob es ganz richtig ist. :confused: Würde mich über Hilfe und Verbesserungsvorschläge sehr freuen :great:

Anfang:
G|-------------------------------|--------------------------------|---------------------------|
D|---------2--0-----------------|----2---4---2---(2)-----------|---------------------------|
A|-3--2-----------3--0---------|--------------------------2----|--2--3----3--2--0--------|
E|------------------------0-----|-----------------------0-------|---------------------3--0-|
H|------------------------------|-------------------------------|---------------------------|

2x

G|--------------------------------|---------------------------------|
D|--------------------------------|---------------------------------|
A|--------------------------------|---------------------------------|
E|-0----0--0---0--0---0---2--3-|---------------------------------|
H|--------------------------------|-0----0--0---0--0----0--2---3-|

So, das ist alles was ist bis jetzt hab. Der Rest folgt hoffentlich bald :great:
Wenn ich dann fertig bin werd ich mal ne GP Datei erstellen und hier rein stellen ;)

mfg Xahsoij
 
Eigenschaft
 
W
Walt_
Registrierter Benutzer
Zuletzt hier
20.05.16
Registriert
12.12.07
Beiträge
230
Kekse
2.628
Vorschlag:


G|------------------------------|-------------------------------|---------------------------|
D|---------2--------------------|-----2---4---2----2------------|---------------------------|
A|-3--2-------3--2---3----------|--------------------------2----|--2--3----2--0-------------|
E|------------------------0-----|-----------------------0-------|------------------3--3--0--|
H|------------------------------|-------------------------------|---------------------------|

2x

G|--------------------------------|---------------------------------|
D|--------------------------------|---------------------------------|
A|--------------------------------|---------------------------------|
E|-0----0--0--0-------2---0-------|---------------------------------|
H|-----------------------------0--|---0---0---0--1----1---1------1--|

2x

G|--------------------------------|---------------------------------|
D|--------------------------------|---------------------------------|
A|----------2---------------------|---------------------------------|
E|-0----0-----0----0--2---0-------|---------------------------------|
H|-----------------------------0--|---0---0---0--1----1---1------1--|

2x

G|--------------------------------|---------------------------------|
D|--------------------------------|---------------------------------|
A|--------------------------------|---------------------------------|
E|-0----0--0--0-------2---0-------|---------------------------------|
H|-----------------------------0--|---0---0---0--1----1---1------1--|

G|--------------------------------|---------------------------------|
D|--------------------------------|---------------------------------|
A|-----------------------0-0-0----|---------------------------------|
E|-0-0--2-2-0-3-3-0-4-------------|----------3-0-----------3-0------|
H|--------------------------------|---0--0--0-------0--0--0---------|



Soweit mal. Rest später.

Gruß,
Walt
 

Ähnliche Themen


Neue Themen

Unser weiteres Online-Angebot:
Bassic.de · Deejayforum.de · Sequencer.de · Clavio.de · Guitarworld.de · Recording.de

Musiker-Board Logo
Oben