Basslines zum Nachspielen (Tabs + Aufnahmen)

  • Ersteller Oliver_
  • Erstellt am

Oliver_
Oliver_
Registrierter Benutzer
Zuletzt hier
23.11.21
Registriert
15.04.05
Beiträge
2.748
Kekse
2.829
Ort
Frankfurt am Main
Hier ein kleiner Sammelthread :)
Würde mich freuen, wenn sich viele mitmachen würden!


Gruß,
Olli ;)


PS: Aufnahmen gezippt im Anhang




Iced Earth - Melancholy
Code:
So wird es von der Gitarre im Lied gespielt:
G|-----9------9--7--5--4-|---4---7--4------2---5--2---|
D|---7------7------------|-5---5------5--3---3------3-|
A|-0------0--------------|----------------------------|
E|-----------------------|----------------------------|

Bei der Aufnahme spiele ich es so:
G|-----9------9--7\-5\-4-|---4---7--4------2---5--2---|
D|---7------7------------|-5---5------5--3---3------3-|
A|-0------0--------------|----------------------------|
E|-----------------------|----------------------------|
                       ^
                       |
              Als Variation 4/5\4 od. 4h5p4
Ja, spielt eigentlich die Gitarre. Die Melodie fand ich aber so toll, dass ich sie kurzerhand 1:1 (nach den Tabs) auf dem

Bass nachgespielt habe :)




Iron Maiden - Blood Brothers
Code:
G|------------7---------12---12----14-----------------7----------------------|
D|---9---9--5---5--5/10---10----12---\12-----2---2--5---5-----5---5------7---|
A|-----7---------------------------------------2-----------3----3-----5----7-|
E|0---------------------------------------0----------------------------------|




Red Hot Chili Peppers - Californication
Code:
Spielt man nach den Tabs, die ich hab, so:
G|------9-9-7h9p7-5-----7-7-5--|------9-9-7h9p7-5-----10-10-7--|
D|--7-7------------------------|--7-7--------------------------|
A|------------------8-8--------|------------------8-8----------|
E|-----------------------------|-------------------------------|

Ich spiele es bei der Aufnahme etwas so :) :
G|------9-9-7h9p7-5----7-7-5--|------9-9-7h9p7-5-----10-10-7--|
D|--7-7-----------------------|--7-7--------------------------|
A|------------------8-8~\7----|------------------8-8~---------|
E|----------------------------|-------------------------------|
Edit: Version 2 - glaube das ist besser



Metallica - My Friend Of Misery
Code:
G|---10------10------10--14------12------10------9------9------9--12------10------9----|
D|------12------12----------12------12------12-----10-----10---------10------10-----10-|
A|-0-------0-------0-----------0-------0-------0------0------0----------0-------0------|
E|-------------------------------------------------------------------------------------|



Iron Maiden - Mother Russia
Code:
G|-------------------5-------| |-------------------5---|
D|----7--7--5-7-8--8---7-5---| |----7--7--5-7-8--8---7-|
A|--5----------------------8-| |--5--------------------|
E|---------------------------| |-----------------------|

E|-------------------5-------| |------------------------|
A|----7--7--5-7-8--8---7-5---| |----5--5--2-3-5-5-3-2-0-|
D|--5----------------------8-| |--3---------------------|
G|---------------------------| |------------------------|
 
Eigenschaft
 

Anhänge

  • melancholy.zip
    279,2 KB · Aufrufe: 140
  • myfriendofmisery.zip
    172 KB · Aufrufe: 227
  • bloodbrothers2.zip
    266,8 KB · Aufrufe: 154
  • motherrussia.zip
    194,5 KB · Aufrufe: 127
  • californication2.zip
    300,6 KB · Aufrufe: 147
Ludwig Van
Ludwig Van
Registrierter Benutzer
Zuletzt hier
13.11.18
Registriert
24.02.05
Beiträge
208
Kekse
85
Ort
OWL
hmm, bei californication is aber was schief gelaufen, hör dir mal das original an, das hört sich ganz anders an.


die "neunen" spielst duzu schnell hintereinander.

btw: sry, dass ichs net beschreiben kann, kenn mich in sachen noten net so prima aus
 
Oliver_
Oliver_
Registrierter Benutzer
Zuletzt hier
23.11.21
Registriert
15.04.05
Beiträge
2.748
Kekse
2.829
Ort
Frankfurt am Main
Shit happens :redface: Das Timing von dem Lied lag mir noch nie so, wie ich mich grad errinere... Ich spiels bei Gelegenheit nochmal ein! Dazu noch was von Iron Maiden und mal sehen :great:

Edit: Das ist komisch... Wenn ich einfach zum Spaß was spiele, dann wirds auch was. Wenn ich allerdings versuche gut spielen, wirds mieß :D
 
D
deadzoneman
Registrierter Benutzer
Zuletzt hier
03.03.09
Registriert
15.05.05
Beiträge
20
Kekse
0
Will jetzt ja nich mäkeln, kann es sein dass sich blood brothers irgendwie etwas verkackt anhört? :D Ach ne, kann auch sein, dass ich etwas anders spiele. Werd demnächst ma ebenfalls meine Versionen aufnehmen.
Ach ja und bei My Friend of Misery, was ich ganz gerne spiele, find ichs auch immer gut, die Töne auf der G-Saite so lange wie möglich weiter klingen zu lassen. Is zwar nich mehr ganz original, aber klingt für mich emotionaler :p

Die Aufnahmen hau ich dann hier einfach mitm Edit rein, damit nich gemeckert wird, und der Thread noch weiter verschandelt :p
 
Oliver_
Oliver_
Registrierter Benutzer
Zuletzt hier
23.11.21
Registriert
15.04.05
Beiträge
2.748
Kekse
2.829
Ort
Frankfurt am Main
So, nen anderen Ausschnitt hochgeladen. Jetzt besser? Hatte die Line ein paar mal gespielt und wohl am Ende doch die schlechteste von allen zum Uploaden gewählt :D

Edit: Ich muss gestehen: Das ist nicht ganz Californication was ich da seit Monaten spiele :)
 
Oliver_
Oliver_
Registrierter Benutzer
Zuletzt hier
23.11.21
Registriert
15.04.05
Beiträge
2.748
Kekse
2.829
Ort
Frankfurt am Main
Neu: Iron Maiden - Mother Russia

:)


Gruß
 
Spawn_Ric
Spawn_Ric
Registrierter Benutzer
Zuletzt hier
30.08.15
Registriert
11.09.05
Beiträge
820
Kekse
399
Ort
Leipzig
Hallo Oliver,
vielen Dank für die schönen Aufnahmen, könntest du mir aber bitte nochmal genauer erklären wie du bei Californication den Hammer-On und Pull-Off realisierst? :)
 
Oliver_
Oliver_
Registrierter Benutzer
Zuletzt hier
23.11.21
Registriert
15.04.05
Beiträge
2.748
Kekse
2.829
Ort
Frankfurt am Main
Inwiefern realisieren? Vom Fingersatz her? :)
Z auf 7 und mit R (ggf. auch K) auf 9 hämmern, dann fix runter mit Z runter auf 5

BTW: Neue, hoffentlich richtige, Version jetzt hochgeladen ^^ Eben aufgenommen ;)

Gruß
 
S
  • Gelöscht von bassterix
  • Grund: Inhalt selbst gelöscht;
Oliver_
Oliver_
Registrierter Benutzer
Zuletzt hier
23.11.21
Registriert
15.04.05
Beiträge
2.748
Kekse
2.829
Ort
Frankfurt am Main
Naja, kann man so und so spielen. Hör da kaum Unterschied :)
 
Zappy
Zappy
Registrierter Benutzer
Zuletzt hier
20.07.10
Registriert
12.11.05
Beiträge
11
Kekse
0
Hi, erstmal muss ich sagen, dass ich die idee dieses threats wirklich gut finde.:great:

Und ich hab hier was gutes von Offspring aber leider keine Aufname :( wär toll wenn jemand es aufnehmen und posten könnte:

Code:
Vultures (125 bpm)
 
G /---------------- ----------------
D /----2-------2--- --2-------------
A /-0-----0-3----3- 2---2-------2---
E /---------------- ------0---3---3-




Code:
Dirty Magic (130 bpm)
 
G /------- ---------------- ---------------- ---------------- ----------------
D /------- ---------------- ---------------- ---------------- ----------------
A /------- ----7-------7--- ----10------9--- --2---3---2----- --2---3---2-----
E /-0-3--- 5-5---5---5---5- 8-8---8-7-7---7- 0---0----------- 0---0-------0-3-
(Auftakt bei der wiederholung weglassen)


Beide Lines werden jeweils beliebig lang wiederholt
 
Zappy
Zappy
Registrierter Benutzer
Zuletzt hier
20.07.10
Registriert
12.11.05
Beiträge
11
Kekse
0
Ach ja, das Intro von "Calm like a bomb" (Ratm) könnte man hier noch reinstellen:great:



EDIT:
So sieht das aus:

Code:
[FONT="Lucida Console"]G/-------2--------- ---------------- ---------------- ---------------- ----------------
D/-2-4-5-----4-2-0- 2-4-5---5-2----- --2-4-5--------- ----2---2------- ----------------
A/----------------- ------------5-4- 0---------5-4-2- 4-5-------4-2-1- ------2---5-2-4-
E/----------------- ---------------- ---------------- ---------------- --2-------------

G/----------------- ------2--------- ---------------- ----------------
D/-2-------4-0-2--- 2-4-5-----4-2-0- 2-4-5---5-2----- ----------------
A/---4-5----------- ---------------- ------------5-4- --0-------------
E/----------------- ---------------- ---------------- ----------------[/FONT]
 

Ähnliche Themen


Unser weiteres Online-Angebot:
Bassic.de · Deejayforum.de · Sequencer.de · Clavio.de · Guitarworld.de · Recording.de

Musiker-Board Logo
Oben