spanisch tune

von Matzegecko, 16.01.06.

  1. Matzegecko

    Matzegecko Registrierter Benutzer

    Im Board seit:
    18.07.05
    Zuletzt hier:
    3.09.09
    Beiträge:
    32
    Zustimmungen:
    0
    Kekse:
    10
    Erstellt: 16.01.06   #1
    Kann es sein das man bei spanischen liedern die Gitarre anders stimmt
     
  2. Hans_3

    Hans_3 High Competence Award HCA

    Im Board seit:
    09.11.03
    Beiträge:
    16.151
    Zustimmungen:
    1.124
    Kekse:
    49.622
    Erstellt: 16.01.06   #2
    Eigentlich nicht. Du wunderst Dich sicher über die vielen Reibetöne, die beim Flamenco oft vorkommen und den KLang so charakteristisch machen. Die entstehen meist dadurch, dass bestimmte Akkorde nicht schulbuchmäßig "vollgriffig" gegriffen werden, sondern mit Leersaiten Ergänzungstöne erhalten. Beispiele:

    Am G F E

    0---0---0--0--------
    0---0---0--0--------
    5---4---2--1---------
    7---5---3--2-------------
    ---------------------
    ------------------

    Am G F E

    0---0---0---0-----------------
    1---0---0---0-----------------
    0---0---2---1----------------
    2---3---3---2--------------
    0---2---3---2----------------
    ----3---1---0---------------


    A Bb C

    0--0--0-----------------------
    2--3--5-----------------------
    2--3--5-----------------------
    2--3--5-----------------------
    0--0--0-----------------------
    ---------------------------

    Em D C H7

    0--0--0--2-------------------------
    0--0--0--0-------------------------
    0--0--0--2-------------------------
    5--4--2--1-------------------------
    7--5--3--2--------------------------
    -------------------------------
     
  3. JerryHorton

    JerryHorton Registrierter Benutzer

    Im Board seit:
    16.02.04
    Zuletzt hier:
    24.11.16
    Beiträge:
    779
    Ort:
    Mainz
    Zustimmungen:
    97
    Kekse:
    2.289
    Erstellt: 16.01.06   #3
    Wie im Blues oder auch bei spanisch angehauchten Sachen kannste natürlich auch umstimmen. Bringt aber nicht wenn du das ganze von der Theorieseite her nicht verstanden hast. Kannst ja mal versuchen ob du die Sachen auf n Open-G Tuning z.B. transponieren kannst. Ist immer interessant so Sachen zu versuchen.
     
  4. JerryHorton

    JerryHorton Registrierter Benutzer

    Im Board seit:
    16.02.04
    Zuletzt hier:
    24.11.16
    Beiträge:
    779
    Ort:
    Mainz
    Zustimmungen:
    97
    Kekse:
    2.289
    Erstellt: 16.01.06   #4
    Wie im Blues oder auch bei spanisch angehauchten Sachen kannste natürlich auch umstimmen. Bringt aber nicht wenn du das ganze von der Theorieseite her nicht verstanden hast. Kannst ja mal versuchen ob du die Sachen auf n Open-G Tuning z.B. transponieren kannst. Ist immer interessant so Sachen zu versuchen.

    [Sorry 4 Doppelpost, scheiß IE hat bei mir gesponnen]
     
  5. Matzegecko

    Matzegecko Threadersteller Registrierter Benutzer

    Im Board seit:
    18.07.05
    Zuletzt hier:
    3.09.09
    Beiträge:
    32
    Zustimmungen:
    0
    Kekse:
    10
    Erstellt: 16.01.06   #5
    jo danke
     
Die Seite wird geladen...

mapping