suche tab zu all that she wants von wizo(ace of base cover)

von chiller mit bass, 13.11.06.

  1. chiller mit bass

    chiller mit bass Registrierter Benutzer

    Im Board seit:
    03.02.06
    Zuletzt hier:
    21.01.07
    Beiträge:
    13
    Zustimmungen:
    0
    Kekse:
    10
    Erstellt: 13.11.06   #1
    also ich suche nen tab zum oben genanten lied am besten wäre ein guitar pro tab
    ich find da leider nur tabs für gitarren zum bass find ich nichts

    danke

    chiller mit bass
     
  2. Bortesch

    Bortesch Registrierter Benutzer

    Im Board seit:
    24.10.05
    Zuletzt hier:
    19.04.15
    Beiträge:
    158
    Ort:
    Friesland
    Zustimmungen:
    0
    Kekse:
    53
    Erstellt: 14.11.06   #2
    Hi,
    hoffe das hilft dir !!
     

    Anhänge:

  3. chiller mit bass

    chiller mit bass Threadersteller Registrierter Benutzer

    Im Board seit:
    03.02.06
    Zuletzt hier:
    21.01.07
    Beiträge:
    13
    Zustimmungen:
    0
    Kekse:
    10
    Erstellt: 14.11.06   #3
    ja danke
    da kann ich vieleicht was mit anfangen
    aber wenn einer den tab von dem wizo cover hat immer her damit
     
  4. Lumaca

    Lumaca Registrierter Benutzer

    Im Board seit:
    21.10.06
    Zuletzt hier:
    22.08.08
    Beiträge:
    64
    Zustimmungen:
    0
    Kekse:
    309
    Erstellt: 16.11.06   #4
    Holla, das was ich grad mal so auf die schnelle rausgehört hab is so:

    Grundriff:

    G---------------------------------------------------------------5-5-----------------------
    D-------1-3-------------------------------------------1-3-----------5-5-----5-5--3-3---
    A--3-3------3-----3-3--1-1-----1-1-------------3-3-----3------------------------------
    E---------------------------------------1-1----1------------------------------------------


    Breakdown (oder was das ab 1:50 sein soll):

    G-----------------------------------------------
    D-----------------------------------------------
    A--2--3-3--3------1-2--3-3--3-----1-2--3-3-
    E--------------3-----------------3------------- etc....

    Feinheiten selber raushörn :p

    Falls ich total falsch liege bitte auch sagen ^^
     
Die Seite wird geladen...

mapping