Tabs für kklassische Weihnachtslieder

von Fischkoeppe, 20.11.08.

Sponsored by
pedaltrain
  1. Fischkoeppe

    Fischkoeppe Registrierter Benutzer

    Im Board seit:
    05.02.08
    Zuletzt hier:
    17.10.08
    Beiträge:
    19
    Ort:
    Berlin
    Kekse:
    10
    Erstellt: 20.11.08   #1
    Moin moin Boardies,

    nach einigen verzweifelten Versuchen Tabs für einige Weinachtslieder zu finden habe ich mich selbst ans Tabben gemacht. Denke dass soweit alles paßt und möchte nun mit euch teilen. Gibt sicher einige Gitarrenbeginner die gern am Heiligabend etwas vorzeigen wollen. :)

    Da ich mich selbst auch noch zu den Greenhorns zähle bin ich natürlich für Veränderungsvorschläge offen...gerade was das tabben betrifft. Sollten sich Fehler eingeschlichen haben weist mich bitte drauf hin.


    Viel Spaß damit und schöne Grüße aus dem verregneten Berlin



    Guten Abend, Schön Abend

    2x Chorus

    e|-----------------------------------------------------------------------------------------------------------
    h|-----------------------------------------------------------------------------------------------------------
    g|--------------3--2------------3------------5------2--3--------------------------------------------------
    D|-----3--3------------5--3------------3------------------------------------------------------------------
    A|-----------------------------------5----------------------------------------------------------------------
    E|-----------------------------------------------------------------------------------------------------------

    2x Refrain

    e|-------------------------------------------------------------------------------------------------------------
    h|-----------3------3----------------3-----------------------------------------------------------------------
    g|-------5------3------5--------5-------3----------------3--2-------------3-------------5----2---3------
    D|---------------------------3---------------5---3---3------------5---3-------------3---------------------
    A|--------------------------------------------------------------------------------5--------------------------


    Lasst uns froh und munter sein

    5x Chorus

    e|-----------------------------------------------------------------------------------------------------------
    h|-------------3--------------------------------------------------------------------------------------------
    g|-----5-5-5----5--3---2-2-2--3-3-3--5--3--2-----------------2--3-------------------------------------
    D|--------------------------------------------------5-5-5--3--5--------------------------------------------
    A|----------------------------------------------------------------------------------------------------------
    E|-----------------------------------------------------------------------------------------------------------

    5x Refrain

    e|-----------------------------------------------------------------------------------------------------------
    h|--------3------3------3-------6-----------3---------------------------------------------------------------
    g|----5------5------5----------------5--5------5--3--2----------------------------------------------------
    D|--------------------------3-------------------------------5---2--------------------------------------------
    A|----------------------------------------------------------------------------------------------------------
    E|-----------------------------------------------------------------------------------------------------------


    Oh du fröhliche

    6x Chorus

    e|-----------------------------------------------------------------------------------------------------------
    h|------------------------------------------------------------3---------------------------------------------
    g|---2--4--2-------------2--4--2-------------2--2--4--6-----6--4------2-------------------------------
    D|-------------5--4--5-------------5--4--5---------------------------6----------------------------------
    A|----------------------------------------------------------------------------------------------------------
    E|----------------------------------------------------------------------------------------------------------

    e|-----------------------------------------------------------------------------------------------------------
    h|-------------------------------------------------------3------------3-------------------------------------
    g|------------------------2-------------------2--4--2-----6--4--2-----4--2------------------------------
    D|----2--4--2--4---5------5--4--5--4--5-------------------------------------5--4--2------------------
    A|------------------------------------------------------------------------------------------4--5-----------
    E|-----------------------------------------------------------------------------------------------------------
     
  2. rancid

    rancid Helpful & Friendly User HFU

    Im Board seit:
    16.10.07
    Zuletzt hier:
    6.04.20
    Beiträge:
    2.993
    Ort:
    73XXX
    Kekse:
    12.099
    Erstellt: 20.11.08   #2
  3. Fischkoeppe

    Fischkoeppe Threadersteller Registrierter Benutzer

    Im Board seit:
    05.02.08
    Zuletzt hier:
    17.10.08
    Beiträge:
    19
    Ort:
    Berlin
    Kekse:
    10
    Erstellt: 20.11.08   #3
    Hm, findet Google doch nicht alles...

    Nach einer solchen Sammlung habe ich ne ganze Weile gesucht.



    Danke, Grüße
     
Die Seite wird geladen...

mapping