Tabs gesucht - Loikaemie - Trinkfestigkeit

von enzyp, 15.04.08.

  1. enzyp

    enzyp Registrierter Benutzer

    Im Board seit:
    14.04.08
    Zuletzt hier:
    26.04.08
    Beiträge:
    1
    Zustimmungen:
    0
    Kekse:
    10
    Erstellt: 15.04.08   #1
    Guten Tag,

    Ich versuche seit geraumer Zeit die Tabs bzw. Akkorde zum Lied "Trinkfestigkeit" von "Loikaemie" herauszufinden, doch bin leider nicht fündig geworden.
    Kann mir vllt jemand dabei helfen, die Akkorde (ich glaube das gezupfe bekomm ich dann alleine hin) herauszufinden?
    Hier ist der Link zu dem Lied... http://youtube.com/watch?v=QCCwQkQTk-M

    Ich bedanke mich schonmal im Vorraus für jegliche Bemühungen:)



    enzyp
     
  2. perro77

    perro77 Registrierter Benutzer

    Im Board seit:
    21.04.08
    Zuletzt hier:
    21.04.08
    Beiträge:
    1
    Zustimmungen:
    0
    Kekse:
    10
    Erstellt: 21.04.08   #2
    Hallo, ich hab mir das mal angehört und komme zumindest was die Akkorde angeht zu folgendem Schluss:


    Strophe:

    G D Em Cadd9 (4x)

    und Refrain:

    D G D G Cadd9 G D
    (ooohohohooo..)
    Cadd9 G D G Cadd9 G D

    Bei den Übergängen von Strophe auf Refrain n bischen rumprobieren, bei mir auf der Akustikklampfe passt das aber mit den o.g. Griffen ganz gut. Die einzelnen Saiten beim Intro hab ich noch nicht rausgehört.
     
  3. lukasilcapitano

    lukasilcapitano Registrierter Benutzer

    Im Board seit:
    28.10.12
    Zuletzt hier:
    28.10.12
    Beiträge:
    1
    Zustimmungen:
    0
    Kekse:
    10
    Erstellt: 28.10.12   #3
    Intro: (6/8-takt)
    E -------3---------3p2-----------0-----------3p0----------3---------3p2-----------0-----------0------------3---------3p2-----
    H -----0--0------3-----3------0---0-------1-----1-------0--0------3-----3------0---0-------0-----0------0--0------3-----3---
    G ---0------0--2---------2--0-------0---0---------0---0------0--2---------2--0-------0---0---------0--0------0--2---------2-
    D -0----------0------------2-----------2--------------0----------0------------2-----------2-------------0---------0-------------
    A ----------------------------------------------------------------------------------------------------------------------------------
    E ----------------------------------------------------------------------------------------------------------------------------------




    E ------8p7-----------3p0---------3---------3p2-----------0------------0-----------3p2------2
    H ---8------8--------1----1------0--0-----3-----3--------0--0--------0---0-------3-----3----3
    G --7---------7----0--------0---0-----0--2---------2---0------0----0-------0---2---------2--2
    D -0--------------2------------0--------0-------------2----------2------------0----------------0
    A -------------------------------------------------------------------------------------------------
    E -------------------------------------------------------------------------------------------------
     
Die Seite wird geladen...

mapping