Technik Frage Shakira: Underneath your clothes

von looonylight, 27.02.06.

  1. looonylight

    looonylight Registrierter Benutzer

    Im Board seit:
    17.12.05
    Zuletzt hier:
    13.03.10
    Beiträge:
    6
    Zustimmungen:
    0
    Kekse:
    10
    Erstellt: 27.02.06   #1
    Hi!
    Also ich hab schon die Sufu genutzt aber nix gefunden, ist auch nur ne Kleinigkeit, hoffe ihr seid nicht böse dass ich deshalb nen Thread aufmache, aber:
    Bei dem Solo von Underneath you clothes spielt der Gitarrist ein B und geht dann nen Halbton höher aufs C. In dem Tab den ich dazu gefunden hab stand, dass er das per Slide(D---8/10---) macht, das hört sich aber komplett falsch an. Für mich hörte es sicher eher nach nem Bending an, aber als ich versuchte es nachzuspielen klang es doch immer anders. Also: Weiß jemand genau was da gespielt wird? Benutzt er vll nen Bottleneck oder sowas? Wäre für antworten sehr dankbar :)

    lg, looonylight
     
  2. tuzz

    tuzz Registrierter Benutzer

    Im Board seit:
    08.08.05
    Zuletzt hier:
    22.02.11
    Beiträge:
    778
    Ort:
    Berlin
    Zustimmungen:
    1
    Kekse:
    273
    Erstellt: 27.02.06   #2
    Mh. Also D-Saite, 8. Bund ist A#, oder B (wenn ich mich mit B/H nicht wieder durcheinander bringe). Nen Halbton höher ist dann aber von 8-9 A#->H oder von B->bC, richtig?
    Von 8/10 sliden ist dann doch ein Ganztonschritt?
    Ich hab nen Tab gefunden, da ist die Sologitarre komplett nen Hlabton tiefer gestimmt.
    Vielleicht hilft dir das ja schon weiter? Konnte es leider nicht überprüfen, da Lied nicht zu Hand.
    Code:
    Eb-----------------------------------------------
    Bb-----------------------------------------------
    Gb--9b11--9--------------------------------------
    Db-----------9b11-----9--7--9--9b11--------------
    Ab-----------------------------------------------
    Eb-----------------------------------------------
    
    Eb-----------------------------------------------
    Bb-----------------------------------------------
    Gb--9b11--9--------------------------------------
    Db-----------9b11-----9b11--9b11r9---7--7b9r7----
    Ab-----------------------------------------------
    Eb-----------------------------------------------
    
    lg,
    t.
     
  3. Paranoid

    Paranoid Registrierter Benutzer

    Im Board seit:
    07.09.04
    Zuletzt hier:
    8.12.10
    Beiträge:
    908
    Ort:
    Lübeck
    Zustimmungen:
    3
    Kekse:
    3.322
    Erstellt: 27.02.06   #3
    Das ist ein langsam gespieltes Bending. Wieso es sich bei dir anders anhört, kann ich dir allerdings auch nicht sagen =O Eventuell könntest du ja die gesamten Tabs posten. (also für das Minisolo)
    Von 8 auf 10, bzw (deutsches) B auf C ist übrigens definitiv ein Ganztonschritt, denke mal da war der Verschreibeteufel am Werk beim Threadersteller. Ansonsten könnte das der Grund sein.
     
Die Seite wird geladen...

mapping