Suche melancholische Melodien :)

  • Ersteller Oliver_
  • Erstellt am

Oliver_
Oliver_
Registrierter Benutzer
Zuletzt hier
23.11.21
Registriert
15.04.05
Beiträge
2.748
Kekse
2.829
Ort
Frankfurt am Main
Hi,
spiele ziemlich gerne so Melodiechen, wie zum Bleistift:

Iron Maiden - Blood Brothers
Code:
|------------7---------12---12----14-----------------7----------------------|
|---9---9--5---5--5/10---10----12---\12-----2---2--5---5-----5---5------7---|
|-----7---------------------------------------2-----------3----3-----5----7-|
|0---------------------------------------0----------------------------------|

Iced Earth - Melancholy
Code:
G|-----9------9-7--5--4-|---4---7--4------2---5--2---|
D|---7------7-----------|-5---5------5--3---3------3-|
A|-0------0-------------|----------------------------|
E|----------------------|----------------------------|
ja, spielt eigentlich eine Gitarre ;)


Hät jemand Ideen?
 
Eigenschaft
 
User_MG
User_MG
Registrierter Benutzer
Zuletzt hier
20.02.22
Registriert
08.04.05
Beiträge
170
Kekse
90
Ort
Augsburg
onkelz-kirche

Code:
G-|--------------|----------------|-------------|-------------|
D-|-----2--0-----|-------0--------|----2--0-----|-0-----------|
A-|--0--------3--|-2--3-----3--0--|-0--------3--|----3--2--0--|
E-|--------------|----------------|-------------|-------------|

ansonsten geh auf mx-tabs und such dir die theme songs da gibts einiges: klick

Code:
[FONT=Courier][COLOR=#000000]2222-57-2222-01-2222-57-2222-012           
--------------------------------
--------------------------------
--------------------------------
M:I
[/COLOR][/FONT]

usw...gruß User_MG
 
E
Exciter
Registrierter Benutzer
Zuletzt hier
18.07.10
Registriert
22.08.03
Beiträge
1.316
Kekse
1.795
User_MG schrieb:
ansonsten geh auf mx-tabs und such dir die theme songs da gibts einiges: klick
Sehr melancholisch find ich Mission Impossible und andere Themes nicht gerade...

@Threadstarter:
Ja, ich weiß ungefähr, welche Läufe du meinst. Blood Brothers ist genial :great:

Intro zu "Schism" von Tool:
Code:
 G|--3-2-5-7-------3-2-5-7----|
 D|--0-3-5-8-------3-3-5-8-0--|
 A|---------------------------|
 D|---------------------------|

                                            x4
 G|---------10---9------------10---9---12----|
 D|-0h10h12----0---0--0h10h12----0---0----0--|
 A|------------------------------------------|
 D|------------------------------------------|

Rammsteins "Seemann":
Code:
G----------18-----------------16-------------------14-----------------13-----
D----14--------14--------14--------14--------14---------14------14--------14-
A--0----------------0-------------------0-------------------0----------------
E----------------------------------------------------------------------------

G------------11-----------------13-----------------13-----
D-------9--------9---------9--------9---------9---------9-
A--11----------------11-----------------11----------------
E---------------------------------------------------------

G--------------14-------------------13------------------11---------------9----
D-------11----------11-------11----------11-------11---------11-----11-----11-
A--9--------------------9---------------------9------------------9------------
E-----------------------------------------------------------------------------

G------------------------------------------------------------------------------------
D-------------11--------------------10--------------------11-----------------11------
A-------11---------11-------11-----------11---------11---------11-------11--------11-
E--9--------------------9----------------------9--------------------9----------------

Nicht gerade melancholisch, aber dennoch feiner Lauf: "Longview" von Green Day:
Code:
G--------------------------------9-7-6-7---
D-----9-7-6-----7-6---4---9-7-6--0-0-0-0---
A-5-7-------7-5-----5---7------------------
E------------------------------------------

Mehr fällt mir jetzt spontan nicht ein
 
H
HomerS
Registrierter Benutzer
Zuletzt hier
29.07.14
Registriert
12.07.05
Beiträge
687
Kekse
607
Ort
Dresden
Metallica - One
 
KingNothing`
KingNothing`
Registrierter Benutzer
Zuletzt hier
23.02.15
Registriert
18.01.05
Beiträge
452
Kekse
129
Testament-Souls of Black hat ein sehr geiles Bassriff direkt am Anfang
 
The Dude
The Dude
HCA Bassbau
HCA
HFU
Zuletzt hier
13.06.17
Registriert
05.05.04
Beiträge
5.268
Kekse
41.296
My Friend of Misery von Metallica und
Black Winter Day von Amorphis.
 
Oliver_
Oliver_
Registrierter Benutzer
Zuletzt hier
23.11.21
Registriert
15.04.05
Beiträge
2.748
Kekse
2.829
Ort
Frankfurt am Main
Exciter schrieb:
Intro zu "Schism" von Tool:
Code:
 G|--3-2-5-7-------3-2-5-7----|
 D|--0-3-5-8-------3-3-5-8-0--|
 A|---------------------------|
 D|---------------------------|
Spiel ich so :D
Code:
G|---------------------------|
D|--8-7/10/12---8-7/10/12----|
A|--5-8/10/13---8-8/10/13----|
D|------------------------0--|
Hört sich imo besser an...

My Friend Of Misery Ist richtig cool :great: Hab echt gekämpft bis ich die Melodie verinnerlicht hatte *g*

In dem Lied von Amorphis kann ich keine melancholische Bass-Line finden... oder meinst du den Gitarren-Part?

Und die Testament-Melodie find ich nicht grad so melancholisch ;)
 
The Dude
The Dude
HCA Bassbau
HCA
HFU
Zuletzt hier
13.06.17
Registriert
05.05.04
Beiträge
5.268
Kekse
41.296
Oliver_G schrieb:
My Friend Of Misery Ist richtig cool :great: Hab echt gekämpft bis ich die Melodie verinnerlicht hatte *g*

In dem Lied von Amorphis kann ich keine melancholische Bass-Line finden... oder meinst du den Gitarren-Part?

Jep, My Friend of Misery ist verdammt cool und wenn man's mal verinnerlicht hat flutscht es wie von selbst.
Bei Black Winter Day von Amorphis meinte ich schon die Bassline, die ich eigentlich einigermaßen "melancholisch" finde, auch wenn sie nicht in das Schema der anderen genannten Basslines passt. Aber das ist wohl ein klassischer Fall von subjektiver Wahrnehmung.
 
Oliver_
Oliver_
Registrierter Benutzer
Zuletzt hier
23.11.21
Registriert
15.04.05
Beiträge
2.748
Kekse
2.829
Ort
Frankfurt am Main
My Friend Of Misery ist mir inzwischen zu einfach :)
Kennt jemand vielleicht noch solche Lieder, die über drei Saiten gehen, wie halt My Friend Of Misery oder Seemann? Reizt mich nämlich so zu spielen :D
 
The Dude
The Dude
HCA Bassbau
HCA
HFU
Zuletzt hier
13.06.17
Registriert
05.05.04
Beiträge
5.268
Kekse
41.296
Versuch dich mal an dem Mittelteil von "Orion" (Metallica).
Dort wo Cliff Burton's Bass das Lied "trägt". Ist ziemlich cool, aber relativ einfach.....aber wenn du das dann kannst geht das Stück ja noch ein bisschen weiter und da wird's dann auch kniffliger...
 
Oliver_
Oliver_
Registrierter Benutzer
Zuletzt hier
23.11.21
Registriert
15.04.05
Beiträge
2.748
Kekse
2.829
Ort
Frankfurt am Main
Der Interlude von Orion ist mir auch schon bekannt :/
Aber ich werd mal die ganzen Variationen in Angriff nehmen...
 
uruz
uruz
Registrierter Benutzer
Zuletzt hier
13.11.14
Registriert
20.12.04
Beiträge
1.011
Kekse
318
Ort
Erfurt
alle meine entchen in moll!
 
Barde
Barde
Registrierter Benutzer
Zuletzt hier
18.06.18
Registriert
06.01.05
Beiträge
1.289
Kekse
305
uruz schrieb:
alle meine entchen in moll!

wenns "schwerer" sein darf, Bruder Jacob in a-Moll und ne eigene gute betonung raussuchen, fin ich persönlich ein wenig "trauriger"....
 
nightwatchman
nightwatchman
Registrierter Benutzer
Zuletzt hier
20.09.07
Registriert
23.04.05
Beiträge
555
Kekse
176
Ort
Nürnberg
Das Gitarrenintro von Under the Bridge spiele ich gerne auf dem Bass... auch sehr melancholisch, finde ich :)

Edit: Hab das Ganze mal als GP4-Datei angehängt :)
 

Anhänge

  • Under the Bridge.gp4
    1,8 KB · Aufrufe: 152
Fastel
Fastel
Helpful & Friendly User
HFU
Zuletzt hier
12.08.22
Registriert
11.04.04
Beiträge
6.415
Kekse
20.700
Ort
Tranquility Base
ich kann auch mal direkt empfehlen ein paar passende gitarrenläufe zu übernehmen.
"klavier" von rammstein z.B.

außerdem kann man auch ganz andere stücke ausprobieren. hab mir z.B. schon nen passenden Fingersatz zu Tubular Bells von mike Oldfield... oder die melodie von mad World (gary Jules)
 
Barde
Barde
Registrierter Benutzer
Zuletzt hier
18.06.18
Registriert
06.01.05
Beiträge
1.289
Kekse
305
oder schau dir mal nen paar sachen von Sting an, die stimmen mich oft traurig... namen kommen später muss ich erst suchen
 
Oliver_
Oliver_
Registrierter Benutzer
Zuletzt hier
23.11.21
Registriert
15.04.05
Beiträge
2.748
Kekse
2.829
Ort
Frankfurt am Main
Danke für die Tipps :)
Werd auch mal die Mondschein Sonate von Beethoven probieren ;)
 
Wikinger
Wikinger
Registrierter Benutzer
Zuletzt hier
13.02.19
Registriert
04.01.05
Beiträge
758
Kekse
3.206
Ort
Frankfurt a.M.
Eine ziemlich coole Linie ist auch das Intro vom Song "Colossus" der Band Borknagar.
Die Tabs von mysongbook.com brechen dir die Finger, aber als ich gemerkt hab dass man es anders ein wenig leichter spielen kann, hab ich dann auch meine Spielweise entsprechend angepasst :D

Die verbesserte .gp4-File (mit Lead Guitar, die klingt so schön ^^) des Intros im Anhang ...
 

Anhänge

  • colossus_intro.gp4
    2,2 KB · Aufrufe: 161

Ähnliche Themen


Neue Themen

Unser weiteres Online-Angebot:
Bassic.de · Deejayforum.de · Sequencer.de · Clavio.de · Guitarworld.de · Recording.de

Musiker-Board Logo
Oben