Supertramp Tabs


Gong
Gong
Registrierter Benutzer
Zuletzt hier
04.07.13
Registriert
26.04.05
Beiträge
333
Kekse
151
Ort
Krefeld
Hi kennt einer eine Seite wo man Supertramp Tabs herbekommt? ich finde immer nur Seiten wo nur ein paar Songs sind aber net die die ich haben will .. ^^

oder andersrum, hat jemand Supertramp-Songs getabbed? Ich hab gestern "School" getabbed und zeige euch den einfach mal. Wer noch n paar Supertramp-Songs hat der kann die hier ja auch posten :-D .. am liebsten "It's raining again" und "Land Ho" ^^ ... da binsch momentan zu faul zu um die rauszuhören.....

Code:
Band: Supertramp
Song: School

tabbed by: Benjamin Menger (blood_elot@hotmail.com)

x = Deadnote (muted note)
~ = let ring out
/ = Slide up
\ = Slide down



Verse 1 (1:44)

G:---------------------------------[..]repeat '5-x' 32 times
D:---------------------------------[..]   till   ----------
A:---------------------------------[..]this comes-3-3\-----
E:-5-x-5-x-5-x-5-x-5-x-5-x-5-x-5-x-[..]-5-x-5-x--------0~~-


    (2:54)
G:----------------------------
D:-------7-----------------7-- ...this with the key-prebridge
A:---4-7---------------4-7---- 
E:-5-----------------5--------

end it with...
                                                  Piano and Bass Bridge 3:15
G:-------------------------------------- directly ------------------------------
D:-------7--7-7------------7--7-5-------  go on   --------------------5---------
A:---4-7---------------4-7--------7-53--  with    ------35-7--35-7--7---7-5-3-2-
E:-5-----------------5------------------  this    -5--5-------------------------


  -----------------------------------------------------------------
  -------------------5-----------------7-5-----7-5-5--7-5----------
  -5-5-35-7--35-7--7---7-5-3-2-------5-------5------------8-7-5----
  ------------------------------5--5-------------------------------


  ------------------------------------------------------------
  -------7-5----7-5-5--7-5---5-7----7---7-9------5---5-7------
  -----5------5------------8----------7-----10-----5-----8----
  -5-5--------------------------------------------------------


  --------------7---------------------------------------------------------
  -7---7-9--------9-7---------------------53--------------------53--------
  ---7-----10---------8-7-5-------357-357----5-3-2------357-357----5-3-2--
  ----------------------------5-5-------------------5-5-------------------


  -------------------------------------------------------------
  -------------------------------------------------------------
  --------7-7-xx-10-10-87-5-5-32-----35-7-7-xx-10-10-87-5-5-32-
  -5-5-xx------------------------5-5---------------------------


  -------------------------------------------------------------
  ------------------------------------7-5-5---7-5-5-7-5-------- go on with
  -----35-7-7-xx-----23-5-5-32------5-------5-----------8-7-5-- verse 2
  -5-5-----------3-3-----------5-5-----------------------------


Verse 2 (4:17)

G:---------------------------------------------------------------------------
D:---------------------------------------------------------------------------
A:----------0-2-3\-----------5-7~------------0-2-3\------------5-7-77777777--
E:-0-2-4\-----------5~-5~-5~--------0-2-4\------------5~-5~-5~---------------

       (4:40)
  -----------------9999999999999999999999999999999999999999--
  ---------99999999------------------------------------------
  -77777777--------------------------------------------------
  -----------------------------------------------------------


Verse 3 (4:48)
                                                                         (5:18)
G:-------------------------------------------------------------------------------
D:-----------------------(do '3/5-5\' 16x)- then after------------then end-------
A:----------------------------------------- last one ---3-3------- with   -------
E:-3/5-5\-3/5-5\-3/5-5\-------------------------------------0~--------------5~~~~

viel Spass
 
Eigenschaft
 
Gong
Gong
Registrierter Benutzer
Zuletzt hier
04.07.13
Registriert
26.04.05
Beiträge
333
Kekse
151
Ort
Krefeld
hab ich doch geschrieben:
ich finde immer nur Seiten wo nur ein paar Songs sind aber net die die ich haben will ..
diese 5 Songs helfen mir net weiter :p ich will ja ganz andere
 

Ähnliche Themen


Unser weiteres Online-Angebot:
Bassic.de · Deejayforum.de · Sequencer.de · Clavio.de · Guitarworld.de · Recording.de

Musiker-Board Logo
Oben