Böhse Onkelz - Auf Gute Freunde - Solo - Frage !


b0mMeL
b0mMeL
Registrierter Benutzer
Zuletzt hier
17.11.21
Registriert
21.08.08
Beiträge
122
Kekse
309
Hi, hätte mal ne Frage wie man den schnellen Part gegen Ende vom Solo spielt.

e|---------------------------------------------------------------|
h|-12-10----10-12-10----10-12-10----10-12-10----------|
g|-------11--------------11------------11-----------11--------|
D|---------------------------------------------------------------|
A|---------------------------------------------------------------|
E|--------------------------------------------------------------|


ich hab da irgendwie noch net so die Ahnung, wie ich das anschlagen muss, bzw. wie ich die Finger halten muss und ob man da mit Pull-Offs und Hammer-Ons arbeitet..

bitte um Hilfe^^
 
Eigenschaft
 
Backstein123
Backstein123
Helpful & Friendly User
HFU
Zuletzt hier
11.09.22
Registriert
11.12.07
Beiträge
5.215
Kekse
33.530
Ort
Westwood
Ich glaub Hammer-On's und Pull-off's kannst du da vergessen.... sonst wären sie ja angegeben:D

Ich würd halt für den 12. Bund den Ring, für den 10. Bund den Zeige unnd für den 11 Bund auf der anderen saite den Mittelfinger nehmen....
Dann müßte das fliessen;)
 
R
Rammy
Registrierter Benutzer
Zuletzt hier
07.08.10
Registriert
17.02.07
Beiträge
21
Kekse
0
fingersatz wie backstein 123 es erklärt hat und ich spiele es mit hammer ons u. pull offs, (wie der gonzo) ;D
 
T
T.H.O.M.A.S
Registrierter Benutzer
Zuletzt hier
21.02.14
Registriert
09.08.08
Beiträge
179
Kekse
96
e|---------------------------------------------------------------|
h|-12-10----10-12-10----10-12-10----10-12-10----------|
g|-------11--------------11------------11-----------11--------|
D|---------------------------------------------------------------|
A|---------------------------------------------------------------|
E|--------------------------------------------------------------|
R Z M Z R Z M Z R Z M Z R Z M


Z= Zeigefinger
M=Miteelfinger
R=Ringfinger

denk ma so gehts am besten :great:
 
b0mMeL
b0mMeL
Registrierter Benutzer
Zuletzt hier
17.11.21
Registriert
21.08.08
Beiträge
122
Kekse
309
okay, dann hilft wohl nur noch üben üben üben ;) aber ohne hammer und pull offs erscheint mir das als ziemlich schwierig die geschwindigkeit zu erreichen
 
Z
ZakkWild
Registrierter Benutzer
Zuletzt hier
03.04.10
Registriert
02.10.08
Beiträge
71
Kekse
0
ich würd es wir t.h.o.m.a.s. machen aber nicht wir backstein123 mit dem ringfinger... und zwischen den 10er und 12er hammer-on und pull-offs machen

kann mir vielleicht einer sagen, wo man den rest von dem solo herkriegt?
 
Fabi_S
Fabi_S
Helpful & Friendly User
HFU
Zuletzt hier
28.12.20
Registriert
16.04.09
Beiträge
1.464
Kekse
6.436
Ort
Gaimersheim
Hallo,
am besten einfach Powertab runterladen und dann die entsprechenden Tabs bei Ultimate-Guitar runterladen.
Grüße
Fabi
 

Ähnliche Themen


Unser weiteres Online-Angebot:
Bassic.de · Deejayforum.de · Sequencer.de · Clavio.de · Guitarworld.de · Recording.de

Musiker-Board Logo
Oben