Gary Moore - Spanish Guitar

ATK
ATK
Registrierter Benutzer
Zuletzt hier
04.06.09
Registriert
02.10.05
Beiträge
261
Kekse
32
Ort
N ü r n b e r g
was ist ''r'' und ''p'' und wie spiele ich das 2/7---/7-8-10?




e:|-----------------|--------------------|
B:|-----------------|--------------------|
G:|-----------------|--------------------|
D:|-----------------|---------9-10-7\5/7-|
A:|--2/7---/7-8-10--|--/7-9-10-----------|
E:|-----------------|--------------------|


e:|-------------|-------------|
B:|-------------|-------------|
G:|-------------|-------------|
D:|--7-9-5\4/5--|--5-7-4\2/4--|
A:|-------------|-------------|
E:|-------------|-------------|

e:|-----------------|--------------------|
B:|-----------------|--------------------|
G:|-----------------|--------------------|
D:|-----------------|---------9-10-7\5/7-|
A:|--2/7---/7-8-10--|--/7-9-10-----------|
E:|-----------------|--------------------|

e:|-------------|--------------| Intro Ends
B:|-------------|--------------|
G:|-------------|--------------| Try to play
D:|--7-9-5\4/5--|--4-2---------| the intro with
A:|-------------|------2-------| as much vibratos
E:|-------------|--------3--0--| as possible for coolest result


e:|-----------------|--------------------------|
B:|-----------------|----------12-13--10-8-10--|
G:|--4/9--/9-11-12--|--9-11-12-----------------|
D:|-----------------|--------------------------|
A:|-----------------|--------------------------|
E:|-----------------|--------------------------|

e:|----------------|--------------|
B:|--10-12--8\7h8--|--8-10--7\5h7-|
G:|----------------|--------------|
D:|----------------|--------------|
A:|----------------|--------------|
E:|----------------|--------------|

e:|-----------------|--------------------------|
B:|-----------------|----------12-13--10-8-10--|
G:|--4/9--/9-11-12--|--9-11-12-----------------|
D:|-----------------|--------------------------|
A:|-----------------|--------------------------|
E:|-----------------|--------------------------|

e:|----------------|--------------|
B:|--10-12--8\7h8--|--7-5---------|
G:|----------------|------4^--4r--| was ist ''R''
D:|----------------|--------------|
A:|----------------|--------------|
E:|----------------|--------------|


Solo 1


Part 1

e:|---------|--------------------|
B:|--17-15--|--13---12-13-12-13--|
G:|---------|--------------------|
D:|---------|--------------------|
A:|---------|--------------------|
E:|---------|--------------------|

e:|------------|--------------------|
B:|--10-17-13--|--12---10-12-10-12--|
G:|------------|--------------------|
D:|------------|--------------------|
A:|------------|--------------------|
E:|------------|--------------------|

e:|------------|------------------|
B:|-----13-11--|--10---8-10-8-10--|
G:|--12--------|------------------|
D:|------------|------------------|
A:|------------|------------------|
E:|------------|------------------|

e:|--------------------|
B:|--12-10-10-8-10-12--|
G:|--------------------|
D:|--------------------|
A:|--------------------|
E:|--------------------|

e:|---------|--------------------|
B:|--17-15--|--13---12-13-12-13--|
G:|---------|--------------------|
D:|---------|--------------------|
A:|---------|--------------------|
E:|---------|--------------------|

e:|------------|--------------------|
B:|--10-17-13--|--12---10-12-10-12--|
G:|------------|--------------------|
D:|------------|--------------------|
A:|------------|--------------------|
E:|------------|--------------------|

e:|------------|------------------------|
B:|-----13-11--|--8h10h11---8p7p5^--5r--| ?????
G:|--12--------|------------------------|
D:|------------|------------------------|
A:|------------|------------------------|
E:|------------|------------------------|
 
Eigenschaft
 
Neuling
Neuling
Registrierter Benutzer
Zuletzt hier
24.11.20
Registriert
16.04.04
Beiträge
1.522
Kekse
2.275
Ort
uʍoʇuʍopǝpısdn
'r' weiß ich auch nicht, aber 'p' bedeutet Pull-off, d.h. das 'Abziehen' der Finger von den Saiten.
2/7 ist ein Slide, vom 2. in den 7.Bund. Dabei lässt du den Finger auf der Saite und ziehst ihn in den 7. Bund, wobei ein schöner Effekt entsteht.
Steht da nur etwas wie /7, so bedeutet das, dass du aus dem Bund, der direkt unter dem 7. Bund liegt (also der 6.) in den 7. reinslidest.
 
K
Korittke
Registrierter Benutzer
Zuletzt hier
29.07.09
Registriert
21.11.04
Beiträge
527
Kekse
156
r ist release und ist bend umgedreht. Siehe google
 
maPPel
maPPel
Registrierter Benutzer
Zuletzt hier
03.08.13
Registriert
24.08.03
Beiträge
835
Kekse
357
Ort
Neubukow
Sorry für den "Spam", aber cooles Stück was du dir da rausgesucht hast.

Hab ich auch mal auf meinen Wunsch im im Duo mit nem Akustikgitarrero gespielt. Ist echt geil das Ding! :)
 
Neuling
Neuling
Registrierter Benutzer
Zuletzt hier
24.11.20
Registriert
16.04.04
Beiträge
1.522
Kekse
2.275
Ort
uʍoʇuʍopǝpısdn
5r wäre dann also 5p0, oder wie seh' ich das?
Komisch, das ich da noch nie drüber gestolpert bin :confused:
Aber einmal ist bekanntlich immer das erste Mal.
Danke für die Erklärung Korittke.
 
K
Korittke
Registrierter Benutzer
Zuletzt hier
29.07.09
Registriert
21.11.04
Beiträge
527
Kekse
156
also r heißt normalerweise release, d.h.:
5b7r5
wäre gegriffen im 5ten bund, bend auf 7 und wieder zurück auf die 5 also bend zurück (release).
5b7r6
wäre das gleiche nur ein release, der beim gebendeten halbton endet, also nicht den bend vollständig zurück
5br7 ist eine abkürzung für 5b7r5
5b7 wäre ein stop-bend ohne release
-r5- wäre ein prebend, also die saite wird angespielt, wenn sie schon gebendet ist und dann gleich entspannt.
 
ATK
ATK
Registrierter Benutzer
Zuletzt hier
04.06.09
Registriert
02.10.05
Beiträge
261
Kekse
32
Ort
N ü r n b e r g
Neuling schrieb:
Steht da nur etwas wie /7, so bedeutet das, dass du aus dem Bund, der direkt unter dem 7. Bund liegt (also der 6.) in den 7. reinslidest.

...schlag ich im 6ten bund nochmal an oder nicht und slide einfach ?


^ = bend ???
 
Neuling
Neuling
Registrierter Benutzer
Zuletzt hier
24.11.20
Registriert
16.04.04
Beiträge
1.522
Kekse
2.275
Ort
uʍoʇuʍopǝpısdn
Du schlägst nur im 6. Bund an.
Anschlag im 6. Bund->Finger einen Bund hochziehen (=sliden)->Fertig
^ steht wohl für Bend nehme ich an.

@Korittke: Danke, jetzt weiß ich auch, was 'Release' bedeutet. Die Figur war mir bekannt, nicht aber der Name dafür.
 
ATK
ATK
Registrierter Benutzer
Zuletzt hier
04.06.09
Registriert
02.10.05
Beiträge
261
Kekse
32
Ort
N ü r n b e r g
Neuling schrieb:
Du schlägst nur im 6. Bund an.
Anschlag im 6. Bund->Finger einen Bund hochziehen (=sliden)->Fertig

wenn ich den 6. bund anschlage warte ich oder slide ich gleich ?

7\5/7 = slide ich einfach hin und zurück oder schlage ich im 5.bund nochmal an ?
 
Neuling
Neuling
Registrierter Benutzer
Zuletzt hier
24.11.20
Registriert
16.04.04
Beiträge
1.522
Kekse
2.275
Ort
uʍoʇuʍopǝpısdn
Sofort nach anschlag slidest du los.
Musst du ausprobieren, das kann auch von Stück zu Stück etwas variieren.
So wie's am besten klingt, machst du's.

Bei 7\5/7 wird die 5 nicht nochmal extra nageschlagen.
 

Ähnliche Themen


Neue Themen

Unser weiteres Online-Angebot:
Bassic.de · Deejayforum.de · Sequencer.de · Clavio.de · Guitarworld.de · Recording.de

Musiker-Board Logo
Oben