Gary Moore - Spanish Guitar

von ATK, 09.03.06.

  1. ATK

    ATK Registrierter Benutzer

    Im Board seit:
    02.10.05
    Zuletzt hier:
    4.06.09
    Beiträge:
    261
    Ort:
    N ü r n b e r g
    Zustimmungen:
    0
    Kekse:
    42
    Erstellt: 09.03.06   #1
    was ist ''r'' und ''p'' und wie spiele ich das 2/7---/7-8-10?




    e:|-----------------|--------------------|
    B:|-----------------|--------------------|
    G:|-----------------|--------------------|
    D:|-----------------|---------9-10-7\5/7-|
    A:|--2/7---/7-8-10--|--/7-9-10-----------|
    E:|-----------------|--------------------|


    e:|-------------|-------------|
    B:|-------------|-------------|
    G:|-------------|-------------|
    D:|--7-9-5\4/5--|--5-7-4\2/4--|
    A:|-------------|-------------|
    E:|-------------|-------------|

    e:|-----------------|--------------------|
    B:|-----------------|--------------------|
    G:|-----------------|--------------------|
    D:|-----------------|---------9-10-7\5/7-|
    A:|--2/7---/7-8-10--|--/7-9-10-----------|
    E:|-----------------|--------------------|

    e:|-------------|--------------| Intro Ends
    B:|-------------|--------------|
    G:|-------------|--------------| Try to play
    D:|--7-9-5\4/5--|--4-2---------| the intro with
    A:|-------------|------2-------| as much vibratos
    E:|-------------|--------3--0--| as possible for coolest result


    e:|-----------------|--------------------------|
    B:|-----------------|----------12-13--10-8-10--|
    G:|--4/9--/9-11-12--|--9-11-12-----------------|
    D:|-----------------|--------------------------|
    A:|-----------------|--------------------------|
    E:|-----------------|--------------------------|

    e:|----------------|--------------|
    B:|--10-12--8\7h8--|--8-10--7\5h7-|
    G:|----------------|--------------|
    D:|----------------|--------------|
    A:|----------------|--------------|
    E:|----------------|--------------|

    e:|-----------------|--------------------------|
    B:|-----------------|----------12-13--10-8-10--|
    G:|--4/9--/9-11-12--|--9-11-12-----------------|
    D:|-----------------|--------------------------|
    A:|-----------------|--------------------------|
    E:|-----------------|--------------------------|

    e:|----------------|--------------|
    B:|--10-12--8\7h8--|--7-5---------|
    G:|----------------|------4^--4r--| was ist ''R''
    D:|----------------|--------------|
    A:|----------------|--------------|
    E:|----------------|--------------|


    Solo 1


    Part 1

    e:|---------|--------------------|
    B:|--17-15--|--13---12-13-12-13--|
    G:|---------|--------------------|
    D:|---------|--------------------|
    A:|---------|--------------------|
    E:|---------|--------------------|

    e:|------------|--------------------|
    B:|--10-17-13--|--12---10-12-10-12--|
    G:|------------|--------------------|
    D:|------------|--------------------|
    A:|------------|--------------------|
    E:|------------|--------------------|

    e:|------------|------------------|
    B:|-----13-11--|--10---8-10-8-10--|
    G:|--12--------|------------------|
    D:|------------|------------------|
    A:|------------|------------------|
    E:|------------|------------------|

    e:|--------------------|
    B:|--12-10-10-8-10-12--|
    G:|--------------------|
    D:|--------------------|
    A:|--------------------|
    E:|--------------------|

    e:|---------|--------------------|
    B:|--17-15--|--13---12-13-12-13--|
    G:|---------|--------------------|
    D:|---------|--------------------|
    A:|---------|--------------------|
    E:|---------|--------------------|

    e:|------------|--------------------|
    B:|--10-17-13--|--12---10-12-10-12--|
    G:|------------|--------------------|
    D:|------------|--------------------|
    A:|------------|--------------------|
    E:|------------|--------------------|

    e:|------------|------------------------|
    B:|-----13-11--|--8h10h11---8p7p5^--5r--| ?????
    G:|--12--------|------------------------|
    D:|------------|------------------------|
    A:|------------|------------------------|
    E:|------------|------------------------|
     
  2. Neuling

    Neuling Registrierter Benutzer

    Im Board seit:
    16.04.04
    Zuletzt hier:
    3.12.16
    Beiträge:
    1.516
    Ort:
    uʍoʇuʍopǝpısdn
    Zustimmungen:
    200
    Kekse:
    2.285
    Erstellt: 09.03.06   #2
    'r' weiß ich auch nicht, aber 'p' bedeutet Pull-off, d.h. das 'Abziehen' der Finger von den Saiten.
    2/7 ist ein Slide, vom 2. in den 7.Bund. Dabei lässt du den Finger auf der Saite und ziehst ihn in den 7. Bund, wobei ein schöner Effekt entsteht.
    Steht da nur etwas wie /7, so bedeutet das, dass du aus dem Bund, der direkt unter dem 7. Bund liegt (also der 6.) in den 7. reinslidest.
     
  3. Korittke

    Korittke Registrierter Benutzer

    Im Board seit:
    21.11.04
    Zuletzt hier:
    29.07.09
    Beiträge:
    538
    Zustimmungen:
    1
    Kekse:
    166
    Erstellt: 09.03.06   #3
    r ist release und ist bend umgedreht. Siehe google
     
  4. maPPel

    maPPel Registrierter Benutzer

    Im Board seit:
    24.08.03
    Zuletzt hier:
    3.08.13
    Beiträge:
    837
    Ort:
    Neubukow
    Zustimmungen:
    2
    Kekse:
    367
    Erstellt: 09.03.06   #4
    Sorry für den "Spam", aber cooles Stück was du dir da rausgesucht hast.

    Hab ich auch mal auf meinen Wunsch im im Duo mit nem Akustikgitarrero gespielt. Ist echt geil das Ding! :)
     
  5. Neuling

    Neuling Registrierter Benutzer

    Im Board seit:
    16.04.04
    Zuletzt hier:
    3.12.16
    Beiträge:
    1.516
    Ort:
    uʍoʇuʍopǝpısdn
    Zustimmungen:
    200
    Kekse:
    2.285
    Erstellt: 09.03.06   #5
    5r wäre dann also 5p0, oder wie seh' ich das?
    Komisch, das ich da noch nie drüber gestolpert bin :confused:
    Aber einmal ist bekanntlich immer das erste Mal.
    Danke für die Erklärung Korittke.
     
  6. ATK

    ATK Threadersteller Registrierter Benutzer

    Im Board seit:
    02.10.05
    Zuletzt hier:
    4.06.09
    Beiträge:
    261
    Ort:
    N ü r n b e r g
    Zustimmungen:
    0
    Kekse:
    42
    Erstellt: 09.03.06   #6
    steht ^ für benden ?
     
  7. Korittke

    Korittke Registrierter Benutzer

    Im Board seit:
    21.11.04
    Zuletzt hier:
    29.07.09
    Beiträge:
    538
    Zustimmungen:
    1
    Kekse:
    166
    Erstellt: 09.03.06   #7
    also r heißt normalerweise release, d.h.:
    5b7r5
    wäre gegriffen im 5ten bund, bend auf 7 und wieder zurück auf die 5 also bend zurück (release).
    5b7r6
    wäre das gleiche nur ein release, der beim gebendeten halbton endet, also nicht den bend vollständig zurück
    5br7 ist eine abkürzung für 5b7r5
    5b7 wäre ein stop-bend ohne release
    -r5- wäre ein prebend, also die saite wird angespielt, wenn sie schon gebendet ist und dann gleich entspannt.
     
  8. ATK

    ATK Threadersteller Registrierter Benutzer

    Im Board seit:
    02.10.05
    Zuletzt hier:
    4.06.09
    Beiträge:
    261
    Ort:
    N ü r n b e r g
    Zustimmungen:
    0
    Kekse:
    42
    Erstellt: 10.03.06   #8
    ...schlag ich im 6ten bund nochmal an oder nicht und slide einfach ?


    ^ = bend ???
     
  9. Neuling

    Neuling Registrierter Benutzer

    Im Board seit:
    16.04.04
    Zuletzt hier:
    3.12.16
    Beiträge:
    1.516
    Ort:
    uʍoʇuʍopǝpısdn
    Zustimmungen:
    200
    Kekse:
    2.285
    Erstellt: 10.03.06   #9
    Du schlägst nur im 6. Bund an.
    Anschlag im 6. Bund->Finger einen Bund hochziehen (=sliden)->Fertig
    ^ steht wohl für Bend nehme ich an.

    @Korittke: Danke, jetzt weiß ich auch, was 'Release' bedeutet. Die Figur war mir bekannt, nicht aber der Name dafür.
     
  10. ATK

    ATK Threadersteller Registrierter Benutzer

    Im Board seit:
    02.10.05
    Zuletzt hier:
    4.06.09
    Beiträge:
    261
    Ort:
    N ü r n b e r g
    Zustimmungen:
    0
    Kekse:
    42
    Erstellt: 11.03.06   #10
    wenn ich den 6. bund anschlage warte ich oder slide ich gleich ?

    7\5/7 = slide ich einfach hin und zurück oder schlage ich im 5.bund nochmal an ?
     
  11. Neuling

    Neuling Registrierter Benutzer

    Im Board seit:
    16.04.04
    Zuletzt hier:
    3.12.16
    Beiträge:
    1.516
    Ort:
    uʍoʇuʍopǝpısdn
    Zustimmungen:
    200
    Kekse:
    2.285
    Erstellt: 11.03.06   #11
    Sofort nach anschlag slidest du los.
    Musst du ausprobieren, das kann auch von Stück zu Stück etwas variieren.
    So wie's am besten klingt, machst du's.

    Bei 7\5/7 wird die 5 nicht nochmal extra nageschlagen.
     
Die Seite wird geladen...

mapping