Brauch Hilfe bei "Deine Schuld"

von W?stens?nger, 16.11.05.

  1. W?stens?nger

    W?stens?nger Registrierter Benutzer

    Im Board seit:
    12.02.05
    Zuletzt hier:
    20.11.06
    Beiträge:
    73
    Zustimmungen:
    0
    Kekse:
    10
    Erstellt: 16.11.05   #1
    Hallo,
    ih hab wirklich ne Weile im Forum gesucht aber ich habe keinen Thread zu diesem Ärzte Song gefunden
    Ich wollte mal wissen, ob das folgendes Zwischenspiel, was ich bei debil-tabs.de.vu gefunden hab richtig ist.
    Das ist das Zwischenspiel nach dem Hall-Intro, bin mir aber nicht hundertpro sicher.

    [Ab dem 3 Mal Intro setzt eine verzerrte Gitarre ein:]
    h D A h D A
    1:---|---------------------|-----------------------|---------------------|-----------------------|
    2:---|---------------------|-----------------------|---------------------|-----------------------|
    3:---|---------------------|-----------------------|---------------------|-----------------------|
    4:---|---------------------|-----------------------|---------------------|-----------------------|
    5:-0-|-2-2---2--0^2-2--2-2/|5-5--5-5-0--0-5--5-4-0-|-2-2---2--0^2-2--2-2/|5-5--5-5-0--0-5--5-4-0-|
    6:---|---------------------|-----------------------|---------------------|-----------------------|
    h D A h D A
    1:---------------------|-----------------------|---------------------|-----------------------|
    2:---------------------|-----------------------|---------------------|-----------------------|
    3:---------------------|-----------------------|---------------------|-----------------------|
    4:-4-4---4--2/4-4--4-4/|7-7--7-7-2--2-7--7-6-2-|-4-4---4--2/4-4--4-4/|7-7--7-7-2--2-7--7-6-2-|
    5:-2-2---2--0^2-2--2-2/|5-5--5-5-0--0-5--5-4-0-|-2-2---2--0^2-2--2-2/|5-5--5-5-0--0-5--5-4-0-|
    6:---------------------|-----------------------|---------------------|-----------------------|


    hab noch nen anderes gefunden,das gabs aber bloß als giutar pro datei, aber vielleicht ist das ja schon richtig

    Wäre echt toll wenn jemand helfen könnte ich bin noch nicht so sicher im raushören von sowas...:o
     
  2. Freakshow

    Freakshow Registrierter Benutzer

    Im Board seit:
    06.09.05
    Zuletzt hier:
    23.03.15
    Beiträge:
    403
    Ort:
    Am Arsch der Welt
    Zustimmungen:
    3
    Kekse:
    894
    Erstellt: 16.11.05   #2
    Jap, ist weitestgehend richtig. Vom Takt her sicher nicht, aber die Bünde und Saiten selber schon. Takt musst du halt raushören, also in welchem Abstand du die Töne anschlägst.

    Aber:

    Davor kommt noch ein:

    4:---2---
    5:---0---

    Allerdings wird das, was im Zitat auf der 4. Saite steht von einer anderen Gitarre gespielt. :great:
     
  3. W?stens?nger

    W?stens?nger Threadersteller Registrierter Benutzer

    Im Board seit:
    12.02.05
    Zuletzt hier:
    20.11.06
    Beiträge:
    73
    Zustimmungen:
    0
    Kekse:
    10
    Erstellt: 16.11.05   #3
    Dank dir
    werds gleich mal nochmal ausprobieren
     
Die Seite wird geladen...

mapping