Tito and Tarantula -After Dark Tab

FloKu

FloKu

Registrierter Benutzer
Zuletzt hier
17.06.20
Registriert
12.03.05
Beiträge
39
Kekse
0
Ort
Norden
So... hab mich mal rangesetzt dieses geniale stück zu taben.
mitlerweile bin ich so weit:

Code:
Tito & Tarantula - After Dark
 
Intro:
|-----------------------------|
|---------12-15-12------------|
|---11-14----------14---------|
|---------------------14-12---|
|-----------------------------|
|-----------------------------|
 
Verse:
|------7--7------5--------7--7------5----|
|------7--7------5--------7--7------5----|
|------8--8------6--------8--8------6----|	ein par mal
|------9--9------7--------9--9------7----|	diesen riff
|------9--9------7--------9--9------7----|
|--7---7--7--5---5----7---7--7--5---5----|
 
|---0-0-0-0-0-0-0-2-2-2-2-2-2-2-2---|
|---0-0-0-0-0-0-0-2-2-2-2-2-2-2-2---|
|---1-1-1-1-1-1-1-3-3-3-3-3-3-3-3---| dann irgendwann das hier
|---2-2-2-2-2-2-2-4-4-4-4-4-4-4-4---| hinterher und wieder mit
|---2-2-2-2-2-2-2-4-4-4-4-4-4-4-4---|	 dem oberen anfangen
|---0-0-0-0-0-0-0-2-2-2-2-2-2-2-2---|
fehler dürfen gern berichtigt werden ^-^

nur jetzt sind ein par stellen die ich nicht raushören kann :(
sone kleine stelle die man vielleicht als refrain bezeichenen könnte... (fallinf, falling... through the floor... i'm knocking on the devil's door... usw.) und das stück ganz am ende.
die tabs die ich bisher im netz gefunden hab sind da alle etwas... blöd...
könnt ihr mir da vielleicht helfen.
ach ja... das solo brauch ich net!

Danke schonmal.
MfG Floku
 
B

black-skull

Registrierter Benutzer
Zuletzt hier
22.07.17
Registriert
21.12.03
Beiträge
1.455
Kekse
146
die tabs von mysongbook.com kommen mir sehr richtig vor

der anfang bei dir ist richtig aber der akkordteil danach ist etwas komisch

wenn du das lied hast müsstest du es eigentlich merken ,guck dir mal das guitar pro file an

ich meine den verse ,da müsste man glaub ich umgekehrt spielen ,also einmal Hdur und 2 mal Adur
 
FloKu

FloKu

Registrierter Benutzer
Zuletzt hier
17.06.20
Registriert
12.03.05
Beiträge
39
Kekse
0
Ort
Norden
hab kein guitar pro... und ich find das hört sich richtig an :p
aber danke für den Tip!

EDIT: ok... jetzt hab ich die guitar pro datei gehört... und kann nur sagen...
son scheiß!!! alles falsch was ich hab :D
naja... nur fast alles ;)
 
B

black-skull

Registrierter Benutzer
Zuletzt hier
22.07.17
Registriert
21.12.03
Beiträge
1.455
Kekse
146
hast du das lied?

dann müsstest du es raushören können dass Hdur nur einmal und Adur 2 mal gespielt wird
 

Ähnliche Themen

Neue Themen

Unser weiteres Online-Angebot:
Bassic.de · Deejayforum.de · Sequencer.de · Clavio.de · Recording.de

Musiker-Board Logo
Oben